Shadows Fall - The Power Of I And I Chords & Tabs

 

The Power Of I And I Chords & Tabs

Shadows Fall Chords & Tabs

Version: 2 Type: Tab 0 ratings
1 star 2 stars 3 stars 4 stars 5 stars
comments

The Power Of I And I Tab

   Main Riff
D----------------------------------------------------------------|
A----------------------------------------------------------------|
F----------------------------------------------------------------|
C-------------------4-3-----------------------------------4-3----|
G-------------------2-1-----------------------------------2-1----|
C---4-3-0-0-1-2-1-0-----4-3-0-0-1-2-1-0-0-4-3-0-0-1-2-1-0--------|

   "Stomp Riff"
D-----------------------------------------------------|
A-----------------------------------------------------|
F-----------------------------------------------------|
C------------------------------------2--------2-------|
G--0--1--0----4--3--0----0--1--0-----3--------4-------|
C--0--1--0----4--3--0----0--1--0--------0--0----------|

   Riff Before 1st Riff (played fast)
D------------------------------|
A------------------------------|
F-----7--6--7/9--7--6--4~~-----|
C--5--5--4--5/7--5--4--2~~-----|
G--3---------------------------|
C------------------------------|

   1st Verse Riff
D--------------------------------------------------------------------------|
A--------------------------------------------------------------------------|
F--------------------------------------------------------------------------|
C--7------------------3--------5/6\5---------------------------------------|
G--5------------------1--------3/4\3---1-3-1-0------8---7---1---3~~--------|
C-----0-0-1-0--0-0--0---0-0-0--------0-1-3-1-0-0-0----0---0---0------------|

   2nd Verse Riff
D-------------------------------------------------------------------------|
A----------------------------------------------------8---10--8\6---6------|
F----------------------------------------------------9---10--9\7--7-7-----|
C--7-------------------3--------5/6\5----------------0-0-0-0-0------------|
G--5-------------------1--------3/4\3---1-3-1-0---------------------------|
C-----0-0-1-0-0-0-0--0---0-0-0--------0-1-3-1-0-0-0-----------------------|

   "Random Riff" (this is played very fast.Played right before chorus)
D-------------------------------|------------------------------------|
A-------------------------------|------------------------------------|
F-------------------------------|------------------------------------|
C-------------------------------|------------------------------------|
G-------------------------------|------------------------------------|
C--1p0-0-0-0-0-6p3-3-3-0-3-3-3--|--1p0-0-0-0-0-6p3-3-3-0-3-3-5-5-----|

  Chorus Riff
D--------------------------------------------------------------------|
A--------------------------------------------------------------------|
F--------------------------------------------------------------------|
C--------------------------------------------------------------------|
G---------------------8-7---4-5~~~-----------------------------------|
C--5-6-0--3-5-3-0-0-0-----0-------5-6--0--3-5-3-0-0-0-0-0-0-0-0-0----|

  Chorus Riff (with harmony)
D--------------------------------------------------------------------|
A--------------------------------------------------------------------|
F--------------------------------------------------------------------|
C--------------------------------------------------------------------|
G---------------------8-7---7-8~~~-----------------------------------|
C--5-6-0--3-5-3-0-0-0-----0-------5-6-0--3-5-3-0-0-0-0-0-0-0-0-0-----|

   End Riff/Bridge
D-------------------------------------|
A-------------------------------------|
F---------------------------0---------|
C--3---4---4/5-4---4------1-----------|
G--1---5---5/6-5---5--3-3--------3----|
C----0---0-------0---0----------------|
[ Tab from: http://www.guitartabs.cc/tabs/s/shadows_fall/the_power_of_i_and_i_tab_ver_2.html ]
   Solo
D----------------------------|----------------------|--------------------10-|
A------10--13-10---10--------|----------------------|-------8-11-10---------|
F--12b----------12---12-9-12-|--10-9----------------|---------------9-10----|
C----------------------------|--------8-8/10~-----7-|-(7)-8-----------------|
G----------------------------|----------------------|-----------------------|
C----------------------------|----------------------|-----------------------|


D--13-12-10-12b-0-------------|---------------------------------------------|
A---------------0---13b(13)b--|-(13)--10h11p10--11/13\11~(11)-10h11h13p10\8-|
F-----------------------------|---------------12----------------------------|
C-----------------------------|---------------------------------------------|
G-----------------------------|---------------------------------------------|
C-----------------------------|---------------------------------------------|


D---------6---10/13p10--------12-15p12----------|---17-13---------13--17-13-|
A-------6--------------11/13-----------13-------|--------15~~---15----------|
F----7------------------------------------------|-------------14------------|
C--0--------------------------------------15-14-|---------------------------|
G-----------------------------------------------|---------------------------|
C-----------------------------------------------|---------------------------|


D-------17----------13---17/20---18-17---18-17-|--15p12---------12h15p12---|
A--15---------15-------------------------------|--------13----13-----------|
F----------------------------------------------|-----------12--------------|
C----------------------------------------------|---------------------------|
G----------------------------------------------|---------------------------|
C----------------------------------------------|---------------------------|


D-----12h13h15p13\10--12h13p12-12-----------------------------------------|
A--13-----------------------------15---13--------13b-r(13)---13~~(13)-----|
F-----------------------------------------0-(0)----------------------12---|
C-----------------------------------------0-(0)---------------------------|
G-------------------------------------------------------------------------|
C-------------------------------------------------------------------------|


D-------------|------------------13b-r(13)-13-10--10-----------------------|
A--10h13-13b--|--(13)~-(13)~~~~~----------------13---13-10------10---------|
F-------------|--------------------------------------------12/13--12-10----|
C-------------|---------------------------------------------------------12-|
G-------------|------------------------------------------------------------|
C-------------|------------------------------------------------------------|

D------------|----------12h15h18p15p12-----------------15--18/21\18--15-----|
A------------|-------14----------------14------------17----------------17---|
F--10-11-10\-|--12h15---------------------15/18~~--18--------------------18-|
C------------|--------------------------------------------------------------|
G------------|--------------------------------------------------------------|
C------------|--------------------------------------------------------------|


D-----15h18p15----------------|
A-----------------17----------|
F-----------------------18\---|
C-----------------------------|
G-----------------------------|
C-----------------------------|

  Behind the solo is just a bunch of power chords played around 1,3,5,7th frets and
thats it. This is correct but there might be a few typing errors, sorry if there is..
otherwise its an awesome song to play. Enjoi~~
Comments