Shadows Fall - The Power Of I And I Chords & Tabs

 

The Power Of I And I Chords & Tabs

Shadows Fall Chords & Tabs

Version: 1 Type: Tab 3 ratings
1 star 2 stars 3 stars 4 stars 5 stars
comments

The Power Of I And I Tab

   
                                      the power of i and i
                                          shadows fall
                                            tabbed by
                                          sadistiksalve


all guitars are in drop-d tuning down one whole step(C G C F A d)

intro riff 1   gtrs 1 and 2                                                      play twice
------------------------------------------]-----------------------------------------------
------------------------------------------]-----------------------------------------------
------------------------------------------]-----------------------------------------------
-------------------4---3------------------]------------------4---3------------------------
---4-3-0-1---2-1-0-2---1-4-3-0---1-2-1-0--]--4-3-0-1---2-1-0-2---1-4-3-0---1-2-0-3--------
---4-3-0-1---2-1-0-------4-3-0---1-2-1-0--]--4-3-0-1---2-1-0-------4-3-0---1-2-0-3--------

then play
------------------------------------------]-----------------------------------------------
------------------------------------------]-----------------------------------------------
------------------------------------------]-------------------------------------2---------
-------------------4---3------------------]------------------4---3--------------2---------
---4-3-0-1---2-1-0-2---1-4-3-0---1-2-1-0--]--4-3-0-1---2-1-0-2---1-4-3-0---1-2--0---------
---4-3-0-1---2-1-0-------4-3-0---1-2-1-0--]--4-3-0-1---2-1-0-------4-3-0---1-2------------
[ Tab from: http://www.guitartabs.cc/tabs/s/shadows_fall/the_power_of_i_and_i_tab.html ]
gtrs 1 and 2
intro riff 2 the stomp riff play 4 times
-----------------------------------------
-----------------------------------------
-----------------------------------------
-----------------------------2-----2-----
--0-1-0----4-3-0----0-1-0----3-----4-----
--0-1-0----4-3-0----0-1-0------0-0-------


intro riff 3 gtrs 1 and 2
------------------------------------------]------------------------------------------------
------------------------------------------]------------------------------------------------
------------------------------------------]------------------------------------2-----------
-------------------4---3------------------]------------------4---3-------------2-----------
---4-3-0-1---2-1-0-2---1-4-3-0---1-2-1-0--]--4-3-0-1---2-1-0-2---1-4-3-0---1-2-0-----------
---4-3-0-1---2-1-0-------4-3-0---1-2-1-0--]--4-3-0-1---2-1-0-------4-3-0---1-2-------------



gtr 2 
-------------------------------------------    
-------------------------------------------     
---------7------6----7/9-----7-----6----4--
--5----------------------------------------
-------------------------------------------
-------------------------------------------

gtr1
--------------------------------------------
--------------------------------------------
--------------------------------------------
---------5-----4----5/7-----5----4------2---
--3-----------------------------------------
--------------------------------------------


riff 4                              play twice
---------------------------------------------]
---------------------------------------------]
-------7----6-----7/-9-----------------------]
--5----5----4-----5/-7---7---6-----4---------]
--3----------------------5---4-----2---------]
---------------------------------------------]
Comments