Shadows Fall - The Light That Blinds Chords & Tabs

 

The Light That Blinds Chords & Tabs

Shadows Fall Chords & Tabs

Version: 8 Type: Tab 0 ratings
1 star 2 stars 3 stars 4 stars 5 stars
comments

The Light That Blinds Tab

song:the light that blinds
album:the war within
tuning: DGCFAD

/ = SLIDE
PH = PINCHED HARMONIC
* = PALM MUTE
\" = TREMELO PICK (PICK AS FAST AS U CAN)
BR = BEND RAPIDLY 
~ = LET NOTE RING OUT
P = PULL OFF
H = HAMMER ON

IM PRETTY SURE THIS SONGS ABOUT 98% ACCURATE,I DECIDED TO TAB THIS BECAUSE I COULDNT
FIND THE WHOLE SONG ANYWHERE AND IM PRETTY SURE THE TUNING IS RIGHT IVE SEEN BITS OF
THE TAB SAYING ITS DROP C ,BUT TO ME IT DIDNT SOUND RIGHT AND THIS ONE SOUNDS PRETTY
SPOT ON,ALSO THIS SONG IS PRETTY DEMANDING 
MAKE SURE YOUR WARMED UP BEFORE ATTEMPTING IT.

  ACCUSTIC INTRO (2 GUITARS ARR.FOR ONE)

D--3----4------------6-------------------
A---4--4--4--4--3/4-----4/3--------------
F----5-----5-----------------/7-5-4------  X2
C----------------------------------------
G----------------------------------------
D----------------------------------------

D--3----4-----------6--------------------
A---4--4--4--4--3/4---4/3--/8-6-4-3------
F----5-----5-----------------------------  X3
C----------------------------------------
G----------------------------------------
D----------------------------------------

  4TH TIME PLAY THIS

D--3----4-----------6--------------------
A---4--4--4--4--3/4---4/3--/8-6-4-3-4~~--
F----5-----5------------------------5~~--   (DISTORTION FADES IN)
C-----------------------------------5~~--
G----------------------------------------
D----------------------------------------

 PLAY THIS OVER THE FRANTIC SOLING IN THE BACKGROUND
D-----------------------------------------
A-----------------------------------------
F-----------------------------------------
C--2~~~----2~~~----2~~~----2~~~-----------  X1
G--2~~~----2~~~----2~~~----2~~~-----------
D--0~~~----0~~~----0~~~----0~~~-----------

TREM PICK THIS PART

D-----------------------------------------
A-----------------------------------------
F-----------------------------------------
C------------------6\"---------------------
G---------10\"-----------------5\"----------
D--8\"--6\"-----8\"------4\"--6\"--------------


D-----------------------------------------
A-----------------------------------------
F-----------------------------------------
C-----------------------------------------
G-----3\"----3\"--6\"--5\"--------------------
D--1\"----1\"------------5\"-----------------


D-----------------------------------------
A-----------------------------------------
F-----------------------------------------
C-----------------6\"----------------------
G---------10\"----------------5\"-----------
D--8\"--6\"----8\"-------4\"--6\"--------------


D-----------------------------------------
A-----------------------------------------
F-----------------------------------------  WHOLE LOT X2
C-----------------------------------------
G-----3\"----3\"--6\"--5\"--------------------
D--1\"----1\"-------------------------------


  PLAY THIS AFTER SECOND TIME
D-----------------------------------------
A-----------------------------------------
F-----------------------------------------
C--5------5------5------------------------
G--3-567--3-567--3-5656-------------------
D----345----345----3456-------------------
     ***    ***    **

  VERSE
D---------------------------------------------------------
A---------------------------------------------------------
F---------------------------------------------5P4---------
C-------2----------------2-----3----2-------------5--5/7--
G--3----0----3---2H3P2---0--00---00----00-5---------------
D----00---00---0-------0----------------------------------
     **   **   *       *    **   **    **


D----------------------------------------------------------
A-------------------------------------------------8/10-----
F---------------------------------7-7/9-----------7/9------
C-------2----------------2--------5-5/7-9-7-9--------------
G--3----0----3---2H3P2---0--------------7-5-7--------------
D----00---00---0-------0---00------------------------------
     **   **   *       *   **

   CHORUS
D--------------------------------------------
A--------------------------------------------
F----------2-4------3----------5-------------  X2
C--5-------0-2-----5--5-------7--7-------7~~-
G--3-2------------5----5-----7----7------7~~-
D----0-----------3----------5------------5~~-

    CHORUS END (2ND TIME PLAY THIS)
[ Tab from: http://www.guitartabs.cc/tabs/s/shadows_fall/the_light_that_blinds_tab_ver_8.html ]
D--------------------------------------------
A--------------------------------------------
F--------------------------------------------
C-------7/5----------------------------------
G--7-7--5/3---3PH----------------------------
D--5-5------0--------------------------------
   * *      *

 VERSE
 CHORUS


     RIFF1 
D---------------------------------------------------------------
A---------------------------------------------------------------
F--------------------------7--6----------------------5\"/8\"------
C---------------4-3--------X--X---------4-3----------6\"/9\"------
G--77777-5------2-1--------5--4---------2-1---------------------
D--55555-3----------000000-------000000------000000-------------
   *****            ******       ******      ****** 

  END RIFF1 WITH THIS CHORD
D-----------------------
A-----------------------
F--5~~~-----------------
C--X--------------------
G--3~~~-----------------
D-----------------------


   RIFF 2
D----------------------------------------------------------------------
A-----3H4----4P3-----------------------------3H4----4P3----------------
F--33-----33------5----1~~-------5~~~-----33-----33------5-------------
C----------------------3~~--5-5--3~~~----------------------------------
G---------------------------3-3------------------------------6~~--9~~--
D------------------------------------------------------------4~~--7~~--
   **     **                * *           **     ** 


   WITH WAH PEDAL (BEHIND SOLO)
D----------------------------------
A----------------------------------
F----------------------------------  X2
C--10~~~8~~~7~~~6~~~~--------------
G----------------------------------
D----------------------------------


   NEXT RIFF(WITH DISTORTION)
D-----------------------------
A-----------------------------
F-----------------------------  X2
C--5~~-8~~--------------------
G--3~~-6~~--3~~-5~~-----------
D-----------1~~-3~~-----------


   THEN THIS
D-------------------------------------
A-------------------------------------
F-------------------------------------  X2
C--5-------8--------------------------
G--3-33333-6-66666--3-------5---------
D-------------------1-11111-3-33333---
     *****   *****    *****   *****


     RIFF 3 \"YOU HIDE BEHIND....\"

D------------------------------------
A------------------------------------
F------------------------------------
C--9----12----7----7-----------------
G--7----10----5----5-----------------
D----00----00---00-0--000000000000---
     **    **   **    ************


D------------------------------------------------
A------------------------------------------------
F------------------------------------------------
C--9----12----7----7--9--------------------------
G--7----10----5----5--7------5-7-5---------------
D----00----00---00-0----000--------6-3-5-3~~-----
     **    **   **      ***

  
D---------------------------------------
A---------------------------------------
F---------------------------------------
C--9----12----7----7--------------------
G--7----10----5----5--------------------
D----00----00---00-0--00000000000-3PH---
     **    **   **    ***********


D----------------------------------------------------------
A----------------------------------------------------------
F----------------------------------------------------------
C--9----12----7----7---------------------------------------
G--7----10----5----5---5-7-5--------------5-7-5------------
D---00----00----00-0---------6-3-5-3~~-----------6-3-5-6-0-
    **    **    ** 


D--------------------------------------------------------
A----------------------------------------8~~-8~~-8~~-8~~-
F----------------------------------------7~~-7~~-7~~-7~~-
C--------------------------------------------------------
G--5-7-5--------------5-7-5------------------------------
D---------6-3-5-3~~----------6-3-5-6-0-------------------

CHORUS X1

   OUTRO
D---------------
A---------------
F---------------
C---------------
G--77777--5-----
D--55555--3-----     
   *****

D-------------------------------------       
A-------------------------------------
F-------------------------------------
C-------------------------------------  X3   
G--5-7-5-------------5-7-5------------
D--------6-3-5-3~~----------6-3-5-6-0-

   4TH TIME PLAY THIS
D---------------------------------------------
A---------------------------------------------
F---------------------------------------------
C---------------------------------------------
G--5-7-5-----------------5-7-5-------------2--
D---------6-3-5-3~~-------------6-3-5-6-5--0--



THATS IT ANY COMMENTS OR WANT ME TO TAB ANOTHER SONG EMAIL ME AT

GUITAR_HERO_84@HOTMAIL .COM 

ENJOY THE TAB.     TAB_MAN


     

      










Comments