Shadows Fall - The Light That Blinds Chords & Tabs

 

The Light That Blinds Chords & Tabs

Shadows Fall Chords & Tabs

Version: 7 Type: Tab 0 ratings
1 star 2 stars 3 stars 4 stars 5 stars
comments

The Light That Blinds Tab

-------------------------------------------------------------------------------
			     SONG NAME - THE LGHT THAT BLINDS SOLO
-------------------------------------------------------------------------------
Tabbed by:Guitar_MasterJ
Email:Skatebrd4food@yahoo.com

Tuning:Standard

Double picking figure out the rythym yourself  second time through is a little differet 
the first i now i'm a hundred percent right

e|----------------------------17-----------------------------------------------|
B|-------------------15-18-----18-15-15----------------------------------------|
G|-----------------------------------------------------------------------------|
D|--12-14-15---------------------------------19---(15)-------------------------|
A|-----------------------------------------------------------------------------|
E|-----------------------------------------------------------------------------|

e|----------------------------17-----------------------------------------------|
B|-------------------15-18-----18-15-15----------------------------------------|
G|-----------------------------------------------------------------------------|
D|--12-14-15---------------------------------19---(15)-------------------------|
A|-----------------------------------------------------------------------------|
E|-----------------------------------------------------------------------------|

e|----------------------------17-----------------------------------------------|
B|-------------------15-18-----18-15-------------------------------------------|
G|-----------------------------------------17----------------------------------|
D|--12-14-15---------------------------------19--------------------------------|
A|-----------------------------------------------------------------------------|
E|-----------------------------------------------------------------------------|

[ Tab from: http://www.guitartabs.cc/tabs/s/shadows_fall/the_light_that_blinds_tab_ver_7.html ]
e|----15-17-18-17-15-----------------------------------------------------------|
B|--------------------------18-17-15-14----------------------------------------|
G|--------------------------------------------15-14-12-------------------------|
D|-----------------------------------------------------------------------------|
A|-----------------------------------------------------------------------------|
E|-----------------------------------------------------------------------------|

e|----------------------------17-----------------------------------------------|
B|-------------------15-18-----18-15-15----------------------------------------|
G|-----------------------------------------------------------------------------|
D|--12-14-15---------------------------------19---(15)-------------------------|
A|-----------------------------------------------------------------------------|
E|-----------------------------------------------------------------------------|

e|----------------------------17-----------------------------------------------|
B|-------------------15-18-----18-15-15----------------------------------------|
G|-----------------------------------------------------------------------------|
D|--12-14-15---------------------------------19---(15)-------------------------|
A|-----------------------------------------------------------------------------|
E|-----------------------------------------------------------------------------|

e|----------------------------17--------------------------------------------|
B|-------------------15-18-----18-15----------------------------------------|
G|--------------------------------------------------------------------------|
D|--12-14-15----------------------------------------------------------------|
A|--------------------------------------------------------------------------|
E|--------------------------------------------------------------------------|


e|----15-17-18-17-15-----------------------------------------------------------|
B|--------------------------18-17-15-14----------------------------------------|
G|--------------------------------------------15-14-12-------------------------|
D|-----------------------------------------------------------------------------|
A|-----------------------------------------------------------------------------|
E|-----------------------------------------------------------------------------|

Good luck playing like him!


|
===============================================================================
Comments