Shadows Fall - The Light That Blinds Chords & Tabs

 

The Light That Blinds Chords & Tabs

Shadows Fall Chords & Tabs

Version: 6 Type: Tab 0 ratings
1 star 2 stars 3 stars 4 stars 5 stars
comments

The Light That Blinds Tab

THis song is very hard and will take some time.

Rhythym
D|--------0-------------------------------||
A|-3--------3---3-------------------------||
F|-2----------2-2-------------------------||
C|-0------------0----------0--------------||
G|-0------------0----------0--------------||
C|-0------------0----------0--------------||
                           .

Solo
D|-----------------13-13-17-17-13-13--------------||
A|-----------15-15-------------------15-15--------||
F|------10-10------------------------------10-10--||
C|-12-12------------------------------------------||x3
G|------------------------------------------------||
C|------------------------------------------------||


D|----------------13-13-17-17------13-13-17^17^-17^v-13-13----------||
A|-----------15-15-----------15-15------------------------13-13-15~~||
F|------10-10-------------------------------------------------------||
C|-12-12------------------------------------------------------------||
G|------------------------------------------------------------------||
C|------------------------------------------------------------------||

repeat this twice
D|-------------------------------------------------------|
A|-------------------------------------------------------|
F|-------------------------------------------------------|
C|-------------------------------------------------------|
G|----------777----9999---------3333----222222-----------|
C|8888-6666-----8888----4444-6666----1111--------3333----|

D|--------------------||
A|--------------------||
F|--------------------||
C|--------------------||
G|1111-4444-3333------||
C|---------------6666-||x4


Guitar 2 plays above twice than plays this
D|-----------------------------------------------------||
A|-----------------------------------------------------||
F|-----------------------------------------------------||
C|---------6666----8888---------1111-------------------||
G|4444-3333----4444----1111-3333--------44444444-------||
C|----------------------------------4444--------6666---||

D|-----------------------||
A|-----------------------||
F|-----------------------||
C|----3333---------------||
G|3333----6666-3333------||
C|-----------------------||

fill
guitar 1 and 2
D|--------------------------------------||
A|--------------------------------------||
F|--------------------------------------||
C|3-------3-------3---------------------||
G|1-3-1-3-1-3-1-3-1-3-1-3--4------------||
C|--3-1-3---3-1-3---3-1-5--6------------||


                           VERSE


                                                           guitar 1 guitar 2
D|-------------------------------------------------------||--------||--------|
A|-------------------------------------------------------||--------||--------|
F|-------------------------------------------------------||-----2-3||----3-5-|
C|------------------------------------------------------3||-1-3----||-3-4----|
G|----------------------------------6----5----3---3-1-0-1||--------||--------|
C|000000500000070005000005000007000--0000-0000-00-3-1-0--||--------||--------|
  ...... ...... ... ..... ..... ...  .... .... .. . . .
D|-------------------------------------------------------||
A|--------------------------------------------------7-8--||
F|--------------------------------------------------7-7--||
C|-------------------------------------7-7-8--5-6-5------||
G|-------------------------------------8-8-10-6-6-6------||
C|000000500000070005000005000007000-0-0-0----0-0-0-0-----|| x2
  ...... ...... ... ..... ..... ... . . .    . . . .


D|-----------------------------------------------------------||
A|----------------7-8-----------------7-8--------------------||
F|----------------7-7-----------------7-7--------------------||
C|---7-7-8--5-6-5--------7-7-8--5-6-5-------7-7-8--5--6-5-4-4||
G|---8-8-10-6-6-6--------8-8-10-6-6-6-------8-8-10-6--6-6-5-5||
C|0-0-0----0-0-0-0----0-0-0----0-0-0-0---0-0-0----0--0-0-0---||
  . . .    . . . .    . . .    . . . .   . . .    .  . . .
D|--------------------------------------------------||
A|-----------------7-8------------------------------||
F|-----------------7-7------------------------------||
C|---7-7-8--5-6-5--------7-7-8--5-6-5---------------||
G|---8-8-10-6-6-6--------8-8-10-6-6-6---------------||
C|0-0-0----0-0-0-0-----00-0----0-0-0----------------||
  . . .    . . . .     .. .    . . .
______________________________________________________________________

                       CHORUS

D|-------------------1--------1---------------------||
A|-----------------1--------1-----------------------||
F|-3-----5--7---------------------------------------||
C|-3--0--5--7---3--------3----------5---------------||
G|-1--0--3--5-1--------3------------5---------------||
C|----0-----------------------------5---------------||

D|-------------------------1--------1----------------||
A|-----------------------1--------1------------------||
F|-3-----------5--7------------------------5--3------||
C|-3--0--------5--7----3-------3-------5---5--3----3*||
G|-1--0--------3--5--1-------3---------5-------------||
C|----0--0000--------------------------5-0-0------0--||
[ Tab from: http://www.guitartabs.cc/tabs/s/shadows_fall/the_light_that_blinds_tab_ver_6.html ]
D|---------------------------------------------------||
A|---------------------------------------------------||
F|--------------------------9-8----------------------||
C|--------------------------x-x----------------------||
G|----------3--7-6----------7-6----------7-6---------||
C|0-0-0-0-0-3--7-6-00000000-----00000000-7-6-00000000||

D|---------------------------------------------------||
A|---------------------------------------------------||
F|----------------------9-8--------------------------||
C|-8-8/11---------------x-x--------------------------||
G|-5-5/8---7-6----------7-6----------7-6-------------||
C|-5-5/8---7-6-00000000-----00000000-7-6-00000000----||

D|----------------------------------------------------||
A|----------------------------------------------------||
F|---------------------9-8----------------------------||
C|-8-8/11--------------x-x----------------------8-8/11||
G|-5-5/8---7-6---------7-6---------7-6----------5-5/8-||
C|-5-5/8---7-6-00000000---00000000-7-6-00000000-5-5/8-||

D|----------------------------------------------------||
A|----------------------------------------------------||
F|------------9-8-------------------------------------||
C|------------x-x----------------------8-8/11---------||
G|7-6---------7-6---------7-6----------5-5/8----------||
C|7-6-00000000---00000000-7-6-00000000-5-5/8----------||


______________________________________________________________

142-165
guitar 2 plays chords while guitar plays whole riff
D|1-------------------------------1--------------------------||
A|1------1-2-----2-1----4-4-------1------1-2-----2-1---------||
F|3----3-------3-----3--6---6-----3----3-------3-----3----2--||
C|3--3-------3----------6---------3--3-------3----------4-2--||
G|1---------------------4---------1---------------------4-0--||
C|----------------------------4-3-----------------------4----||

guitar 2  backing solo
D|--1-----1-------1----1------2----1-----0---0---0---------||
A|----1-----1-------1----1------1----1----1---1----1-------||
F|3-----3-----3-1-----1----1-0----0---0--------------------|| x2
C|--------------------------------------4---4---4----4-----||
G|---------------------------------------------------------||
C|---------------------------------------------------------||
guitar 1(solo) with wah
D|------------------------------------------9-----9------9----9------12^v^||
A|-----------------------------12^v-10-12^---12^----12^---12^--10-11~~----||
F|------------------------------------------------------------------------||
C|8~~--15~~--10-11-13-11-10-----------------------------------------------||
G|--------------------------13--9~~---------------------------------------||
C|------------------------------------------------------------------------||

||----------12r--------------|---------------------------|------------------|
||--12b------12b------12b----|--12b----------------------|------------------|
||---------------------------|---------10--11~-----------|------------------|
||---------------------------|---------------------------|------------------|
||---------------------------|---------------------------|------------------|
||---------------------------|---------------------------|------------------|

||------------------|--------------------------|--------------------------||
||------------------|--------------------------|--------------------------||
||------------------|--13b---13b---13r---13~---|--15b---15b---15r---15~---||
||------------------|--------------------------|--------------------------||
||------------------|--------------------------|--------------------------||
||------------------|--------------------------|--------------------------||

------------------------------------|----------13--------------------|
--------13--16--14------14----------|--13--15------------------------|
--16b---------------16------16--14--|--------------------------------|
------------------------------------|--------------------------13----|
------------------------------------|--------------------13-15----15-|
------------------------------------|--------------------------------|

--------------------------------------------------|
--------------------------------------------------|
--------------------------------------------------|
--------13----------13----------13----------13----|
--13-15----15-13-15----15-13-15----15-13-15----15-|
--------------------------------------------------|

--------------------------------------------------|
--------------------------------14-16-------------|
--------------13-15-------13-15-------------13-15-|
--------13-15-------13-15-------------13-15-------|
--13-15-------------------------------------------|
--------------------------------------------------|

------------------------------------|----22r---22--22~-------|
--------------13-15-16r-------13----|------------------------|
--------13-15-------------15--------|------------------------|
--13-15-----------------------------|------------------------|
------------------------------------|------------------------|
------------------------------------|------------------------|

Great song
took me hours to figure it out so enjoy.
VR RULES!!
Comments