Shadows Fall - The Light That Blinds Chords & Tabs

 

The Light That Blinds Chords & Tabs

Shadows Fall Chords & Tabs

Version: 5 Type: Tab 0 ratings
1 star 2 stars 3 stars 4 stars 5 stars
comments

The Light That Blinds Tab

   
-----------------------------------------------------------------------------
			     The Light That Blinds - Shadows Fall
-----------------------------------------------------------------------------
Tabbed by: Mike M.	
Email:purescripts@hotmail.com

Tuning:Half-Step down:(Eb,Ab,Db,Gb,Bb,Eb)
[ Tab from: http://www.guitartabs.cc/tabs/s/shadows_fall/the_light_that_blinds_tab_ver_5.html ]
Play this couple times..
Guitar I:
eb|-2--------2-|-3--------3-|------5-------|------------|
Bb|----3-------|----3-------|---------5----|----------3-|
Gb|-------4----|-------4----|-6h7--------6-|-6-----4----|
Db|------------|-5----------|-7------------|----4-------|
Ab|-2----------|------------|--------------|------------|
Eb|------------|------------|--------------|------------|
(after 3x of (Guitar I))
Guitar II:
eb|------------|------------|--------------|------------|
Bb|------------|------------|--------------|------------|
Gb|-/4---6---7-|---6h7p6----|--------------|9/11-9-~7-~6|
Db|------------|------------|--~7----------|------------|
Ab|------------|------------|--------------|------------|
Eb|------------|------------|--------------|------------|
Guitar I&II:
eb|-2----------|
Bb|-4----------|
Gb|-4----------|
Db|-4----------|
Ab|-2----------|
Eb|------------|
Play(below) along with the Drums (also play throught the riff)
Guitar I:
eb|------------|
Bb|------------|
Gb|-4--------4-|
Db|-4--------4-|
Ab|-2--------2-|
Eb|------------|
  "THE RIFF"(2x)
(below) Up & Down speed pick(3x)
Guitar II:
eb|----------12h15h19p15p12---------|
Bb|--------------------------17p~12-|
Gb|-9h11h12-------------------------|
Db|---------------------------------|
Ab|---------------------------------|
Eb|---------------------------------|
(after 3x of the riff above)
Guitar II: 
eb|-17-19-20p19p17------------------|
Bb|---------------18p17p15----------|
Gb|-----------------------17-16--~14|
Db|---------------------------------|
Ab|---------------------------------|
Eb|---------------------------------|
Guitar I: (Up & Down) Speed Picking
eb|-------------------------------------------------------------------------|
Bb|-------------------------------------------------------------------------|
Gb|-------------------------------------------------------------------------|
Db|-------------------------------------------------------------------------|
Ab|----------------9-9-9-9--------11-11-11-11---------------4-4-4-4---------|
Eb|-7-7-7-7-5-5-5-5--------7-7-7-7-----------3-3-3-3-5-5-5-5-------0-0-0-0--|
..continue..(Guitar I)
eb|-----------------------------------------------|
Bb|-----------------------------------------------|
Gb|-----------------------------------------------|
Db|-----------------------------------------------|
Ab|-2-2-2-2-------2-2-2-2-5-5-5-5-4-4-4-4-0-0-0-0-|
Eb|--------0-0-0-0--------------------------------|
Guitar II:
eb|-------------------------------------------------------------------------|
Bb|-------------------------------------------------------------------------|
Gb|-------------------------------------------------------------------------|
Db|-------------------------------------------------------------------------|
Ab|----------------4-4-4-4--------5-5-5-5-------------------4-4-4-4---------|
Eb|-7-7-7-7-5-5-5-5--------7-7-7-7-----------3-3-3-3-5-5-5-5-------3-3-3-3--|
..continue..(Guitar II)
eb|-----------------------------------------------|
Bb|-----------------------------------------------|
Gb|-----------------------------------------------|
Db|----------------------1-1-1-1-0-0-0-0----------|
Ab|-2-2-2-2-------2-2-2-2---------------1-1-1-1---|
Eb|--------3-3-3-3--------------------------------|


| /  slide up
| \  slide down
| h  hammer-on
| p  pull-off
| ~  vibrato
| +  harmonic
| x  Mute note
=============================================================================
Comments