Shadows Fall - The Light That Blinds Chords & Tabs

 

The Light That Blinds Chords & Tabs

Shadows Fall Chords & Tabs

Version: 2 Type: Tab 0 ratings
1 star 2 stars 3 stars 4 stars 5 stars
comments

The Light That Blinds Tab

   
Tabbed By Drew Hamlett

Im currently working on a powertab version of the whole thing but its so hard figuring
out the other parts to the song.  If you want to work on the song with me or know the
other parts ,then email me at sk8er525@yahoo.com

Guitar tuned low to high DGCFAD

   Intro
    Q=180
    Cm            Ab            Bb             G5
   4/4
    Gtr I
||--3-----------|-4--------4--|-----6--------|--------------||-|
||o----4-----4--|----4--------|--------6-----|-------------o||-|
||--------5-----|-------5-----|-7h8-------8--|-7-----5--4---||-|
||--------------|-6-----------|-8------------|----5---------||-|
||o-3-----------|-------------|--------------|-------------o||-|
||--------------|-------------|--------------|--------------||-|

[ Tab from: http://www.guitartabs.cc/tabs/s/shadows_fall/the_light_that_blinds_tab_ver_2.html ]
    Gtr II
||--------------|-----------------|----------------|----------------||------|
||o-------------|-----------------|----------------|---------------o||------|
||--3s=5-----7--|-8-----7h8p7-(7)-|-------------10s|=12--10--8--7---||-5----|
||--------------|-----------------|-8--------------|----------------||------|
||o-------------|-----------------|----------------|---------------o||------|
||--------------|-----------------|----------------|----------------||------|
|
|   Gtr I
||--3-----------|-4---------4-----|-----6----------|----------------||------|
||o----4-----4--|----4------------|--------6-------|---------------o||------|
||--------5-----|-------5---------|-7h8-------8----|--7------5--4---||------|
||--------------|-6---------------|-8--------------|------5---------||-1----|
||o-3-----------|-----------------|----------------|---------------o||------|
||--------------|-----------------|----------------|----------------||------|
Comments