Shadows Fall - The Light That Blinds Chords & Tabs

 

The Light That Blinds Chords & Tabs

Shadows Fall Chords & Tabs

Version: 1 Type: Tab 0 ratings
1 star 2 stars 3 stars 4 stars 5 stars
comments

The Light That Blinds Tab

Artist: Shadows Fall                                                          
Song: the light that blinds                                                      
Tuning: EADGBE                                                                
Tabs by: Chris D Reid                                                            
Mail: solid_snake@yahoo.com                                                                                                                       

GUITAR 1
|---------------------3----------------------|
|---5----6---------------3-------------------|
|-----5-5-5-5-3H4-------4—3/4----------------|
|---7--7---7------------------------7-6------|
|---0----------------------------------------|
|--------------------------------------------|
[ Tab from: http://www.guitartabs.cc/tabs/s/shadows_fall/the_light_that_blinds_tab.html ]
GUITAR 1                     repeat 3 times                      play this after 3 times
|---------------------3--------------------------|--------------------------|
|---5----6---------------3------------3/5--------|---5----------------------|
|-----5-5-5-5-3H4-------4----------------5-4-----|--------------------------|
|---7--7---7-------------------------------------|---7---===================|
|---0--------------------------------------------|---0----------------------|
|------------------------------------------------|--------------------------|
GUITAR 2         same timing                                   same timing
|------------------------------------------------|--------------------------|
|---------------------------------------3/5------|---5----------------------|
|-----------3---5------3H5P3-------------5-4-----|--------------------------|
|---5--7--------------------------5--------------|---7---===================|
|------------------------------------------------|---0----------------------|
|------------------------------------------------|--------------------------|

BREAK DOWN
INTERLUDE
PART 1-
3…….                   
                                  Play 3 times                               play after 3
|----------------------12P11P9-12P11P9---------|--15P14P12-|-12P11P9-----------|      SPEED
|------------9-11-12---------------------------|-----------------------9^^^^^^^|      PICKING
|--9-11-12-------------------------------------|-------------------------------|
|----------------------------------------------|-------------------------------|
|----------------------------------------------|-------------------------------|
|----------------------------------------------|-------------------------------|

PART 2         same timing                                              same timing
|----------------------12P11P9-12P11P9---------|--15P14P12-|-12P11P9----------------|
|------------9-11-12---------------------------|----------------------------10^^^^^^|
|--9-11-12-------------------------------------|------------------------------------|
|----------------------------------------------|------------------------------------|
|----------------------------------------------|------------------------------------|
|----------------------------------------------|------------------------------------|

This is my first tab and I don’t know any thing else to use except Microsoft                                                    
     
      Key
H= Hammer on
P= Pull off 
== Ring
^= bend                                                                              


Comments