Shadows Fall - The Idiot Box Chords & Tabs

 

Shadows Fall Chords & Tabs

Version: 1 Type: Tab 0 ratings
1 star 2 stars 3 stars 4 stars 5 stars
comments

The Idiot Box Tab

artist: shadows fall (Jonathan donais is a badass) 
this is my own work, josh webb, so i hope you like it. 
Shadows fall is true to their  metal roots, and i hope 
to see more metal shredders tab their shit in the future.
Tuning:DADGBE-drop D tuning


INTRO: play once
-------------------------------------------------
-------------------------------------------------
-------------------------------------------------
-----2----3----8----2----0-2-2--22---------------
-----2----3----8----2----0-2-2--22---------------
-----2----3----8----2----0-2-2--22---------------


2nd Riff (very Sick)
[ Tab from: http://www.guitartabs.cc/tabs/s/shadows_fall/the_idiot_box_tab.html ]
--------------------------------------------------
--------------------------------------------------
--------------------------------------------------
------2-0-22--33--00------------------------------
--------------------------------------------------
----22-2-2--22--22--------------------------------


3rd Riff

---------------------------------------------------------------------
---------------------------------------------------------------------
-------------------------------------77--------99--------1010------99
----2-222222---8/7---00---5/7---00-----------------------------------
----2-222222---8/7---00---5/7---00---55--------77--------88--------77
----2-222222---8/7---00---5/7---00--------00--------00---------00----
      PM....        PM 


From what i can play so far, thats how its done, ill try and fill 
the rest of the song soon!
Comments