Shadows Fall - The Idiot Box Chords & Tabs

 

The Idiot Box Chords & Tabs

Shadows Fall Chords & Tabs

Version: 1 Type: Bass Tab 0 ratings
1 star 2 stars 3 stars 4 stars 5 stars
comments

The Idiot Box Bass Tab

Band- Shadows Fall
Song- The Idiot Box

Intro  0:00 + 
G|----------------------------------------------------|
D|----------------------------------------------------|
A|----------------1~----------------------------------|
E|-0~-----1~------------0~----00--00------------------|

Riff 1  0:47 + 1:46
G|-----------------------------------------------------------------------|
D|-----------------------------------------------------------------------|
A|--------------------2-1-----------------55-----77----88----7-7-7-------|
E|--0-3-2-0-3-2-0--------3-2-0-2-3-0-----00-----00----00-----------------|

Riff 2  1:08 + 2:07
G|--------------------------------------------------------|
D|------------222-555-------------------------------------|
A|--5-7-8-7--------------5-7-8-7--------------------------|
E|------------------------------------000--0-0-0-000-0----|

Riff 3  1:21 + 1:33 + 2:21 + 2:30
G|----------------------------------------------------|
D|----------------------------------------------------|
A|----------------------2/3 \2------------------------|
E|--0-0-0-0--0---0------------3/5 \2------------------|

Riff 4 1:30 + 2:28 
G|----------------------------------------------------|
D|----------------------------------------------------|
A|-------2----3---------------------------------------|
E|---00---00---0-5-00-3-0-3-5-3-2---------------------|

2:38
G|----------------------------------------------------------------------------------|
D|----------------------------------------------------------------------------------|
A|----------------------1111111111111111--------------------------------------------|
E|-1111111111111111--------------------------1111111111111111-3-6-5-4-1-2-3-0-------|

[ Tab from: http://www.guitartabs.cc/tabs/s/shadows_fall/the_idiot_box_btab.html ]

G|----------------------------------------------------|
D|----------------------------------------------------|
A|----------------------------------------------------|
E|--1/2\1-1-1-1/2\1-1-1-1-1---------------------------|
+
G|----------------------------------------------------|
D|----------------------------------------------------|
A|-------------------------------2--------------------|
E|--1/2\1-1-1-1/2\1-1-1-1-0---------------------------|

(Solo- Play Intro)



G|-----------------------------------------------------------|
D|-----------------------------------------------------------|
A|-----------------------------------------------------------|
E|-0--0-1-0-6-5-3-1--0-0-0-0-0-0-----0--0-1-0-6-5-3-1-0-1-3--|
+
G|--------------------------------------------------------------------------|
D|--------------------------------------------------------------------------|
A|---------------------------------------- 3-3-3-3-3-3-3-3-5----------------|
E|- 0--0-1-0-6-5-3-1--0-0-0-0-0-0-------------------------------------------|

G|----------------------------------------------------|
D|----------------------------------------------------|
A|-------------------------1~-------------------------|
E|--3-2-0~------1~---------------00-------------------|
+
G|----------------------------------------------------|
D|----------------------------------------------------|
A|--------------------1~------------------------------|
E|--0~------1~--------------00------------------------|

G|----------------------------------------------------|
D|----------------------------------------------------|
A|----------------------------------------------------|
E|--00--00--000-0-0-00---------00--00--000-0-0-0------|

Comments