Shadows Fall - Stillness Chords & Tabs

 

Stillness Chords & Tabs

Shadows Fall Chords & Tabs

Version: 1 Type: Tab 0 ratings
1 star 2 stars 3 stars 4 stars 5 stars
comments

Stillness Tab

Song: Stillness
Artist: Shadows Fall
Album: The war within
Tuning(low to high):DGCFAD
Mat Bachand=guitar 2
Jon Donais=guitar 1
taber:?
other tabs by myself: The light that blinds (ver 3) ( the one without the intro part,
in the same tuning as Stillness)

This is the intro to Stillness. I couldn't figue out the power chord part that guitar
2( Mat Bachand) plays, but i got the harmony for the little intro riff
                Riff 1
[ Tab from: http://www.guitartabs.cc/tabs/s/shadows_fall/stillness_tab.html ]
D ---------------------8---7---------------------------------|
A -5-8-7-5-4---5-8-7-----------------------------------------|
F -------------------8---8-----------play-2 times------------|
C -----------------------------------------------------------|
G -----------------------------------------------------------|
D -----------------------------------------------------------|

Harmony part for Riff 1
D-------------------------8---7-------------|
A-8-12-10-8-7---8-12-10---------------------|
F-----------------------8---8---------------|
C-------------------------------------------|
G-------------------------------------------|
D-------------------------------------------|


That's prety much it
Comments