Shadows Fall - Somber Angel Chords & Tabs

 

Somber Angel Chords & Tabs

Shadows Fall Chords & Tabs

Version: 1 Type: Tab 0 ratings
1 star 2 stars 3 stars 4 stars 5 stars
comments

Somber Angel Tab

Tune to Dropped D down a whole step.
[ Tab from: http://www.guitartabs.cc/tabs/s/shadows_fall/somber_angel_tab.html ]
D-------------------|-------------------|--------------------
A-------------------|-------------------|--------------------
F-------------------|-------------------|--------------------
C-----2-3--2--------|------7-8--7-------|-------2-3-2--------
G---0---------3-0---|----7--------10-7--|----0--------3-0----
C-0-----------------|--7----------------|--0---------------3-

Repeat that riff a few times and then play this:

D--------------|
A--------------|
F--------------|
C-----3-----5--|
G---3-----5----|
C-3-----5-----0|

Sorry it ain't exactly perfect but it's the best I could do.
Comments