Shadows Fall - Prelude To Disaster Chords & Tabs

 

Prelude To Disaster Chords & Tabs

Shadows Fall Chords & Tabs

Version: 1 Type: Tab 0 ratings
1 star 2 stars 3 stars 4 stars 5 stars
comments

Prelude To Disaster Tab

I put some guides so that you can play with your friend in the right wayon the
second part with the | in it.  THe first two guitars are meant to be played as
one but i cant play it like that so i split it up in two.  If you want ot try
it out by yourself go ahead.  HOpe you guys enjoy this as much as i
do......................................JON.................NIJUGOJIRO
 
Tuning: DADGBe
                                                      
Guitar 1----------RIff 1                         Play 4X 
||-3-----3---5-----|-----6-----------|-------------2-----||----------------|
||---3-----3----3--|---3---3---------|-3----------------o||----------------|
||-----3-----------|-3------------3--|---3-------3---3---||----------------|
||-5---------5-----|------------5----|---------4---------||----------------|
||-----------------|---------6-------|------5-----------o||----------------|
||-----------------|-----------------|-------------------||----------------|

Guitar 2
|------------------|-----------------|-------------------|-----------------|
|------------------|-----------------|-------------------|-----------------|
|------------------|-----------------|-------------------|-----------------|
|------------------|-----------------|-------------------|-----------------|
|------------------|-----------------|-------------------|-----------------|
|------------------|-----------------|-------------------|-----------------|

Guitar 1-----------RIFF 2
|------------------|-----------------|-------------------|-----------------|
|-//8-|-|-6--8-9-|-|--8--|--6-|-6-|-||-|-|-8--|--|----8--|--|-|-|6-8-8/11-||
|---|-|-|-|--|-|-|-|--|--|--|-|-|-|-||-|-|-|--|--|----|--|--|-|-||-|-|-|--||
|---|-|-|-|--|-|-|-|--|--|--|-|-|-|-||-|-|-|--|--|----|--|--|-|-||-|-|-|--||
|---|-|-|-|--|-|-|-|--|--|--|-|-|-|-||-|-|-|--|--|----|--|--|-|-||-|-|-|--||
|---|-|-|-|--|-|-|-|--|--|--|-|-|-|-||-|-|-|--|--|----|--|--|-|-||-|-|-|--||
    | | | |  | | |    |  |  | | | | |  | | |  |  |    |     | | || | | |  |
Guitar 2| |  | | |    |  |  | | | | |  | | |  |  |    |     | | || | | |  |
|---|-|-|-|--|-|-|-|--|--|--|-|-|-|-||-|-|-|--|--|----|--|--|-|-||-|-|-|--||
|o--|-|-|-|--|-|-|-|--|--|--|-|-|-|-||-3-|-|--3--|----3--|--|-|-||-|-|-|--||
|---|-5-|-|--|-|-|-|--|--|--|-|-|-5-||---3-|-----3-------|--|-5-||-|-|-|--||
|---|---5-|--|-|-|-|--|--|--|-|-|---5|-----1-------------|--|---5|-|-|-|--||
|o--3------------3-|-----3----3-0----|-------------------|--3-------------3|
|------------------|-----------------|-------------------|-----------------|

Guitar 1                       Play X2
|------------------|-----------------||------------------|-----------------|
|--9-|-8-|-6-|-8---|--6--4---3---4--o||------------------|-----------------|
|--|-|-|-|-|-|-|---|--|--|---|---|---||-----REPEAT-------|-----REPEAT------|
|--|-|-|-|-|-|-|---|--|--|---|---|---||-------RIFF-------|-------RIFF------|
|--|-|-|-|-|-|-|---|--|--|---|---|--o||---------1-X2-----|---------2-X2----|
|--|-|-|-|-|-|-|---|--|--|---|---|---||------------------|-----------------|
   | | | | | | |      |  |   |   |
Guitar 2 | | | |      |  |   |   |
|--|-|-|-|-|-|-|---|--|--|---|---|---||------------------|-----------------|
|--|-|-|-|-|-3-|---|--|--|---|---|--o||----4------3------|--1----3---4-----|
|--|-|-|-|-|---|---|--|--|---|---|---||----5------3------|--2----3---5-----|
|--|-|-|-|-0---|---|--|--|---|---|---||------------------|-----------------|
|----3---3---------|-----1----------0||------------------|-----------------|
|------------------|-----------------||------------------|-----------------|

Guitar 1
|------------------|-----------------|-------------------|-----------------|
|------------------|-----------------|-------------------|-----------------|
|------------------|-----------------|-------------------|-----------------|
|------------------|-----------------|-------------------|-----------------|
|------------------|-----------------|-------------------|-----------------|
|------------------|-----------------|-------------------|-----------------|
[ Tab from: http://www.guitartabs.cc/tabs/s/shadows_fall/prelude_to_disaster_tab.html ]
Guitar 2
|------------------|-----------------|------------3------|-----3-----1-----|
|--3----1----3-----|---4-------3-----|---1----3---4------|-----4-----3-----|
|--3----2----3-----|---5-------3-----|---2----3----------|-----------------|
|------------------|-----------------|-------------------|-----------------|
|------------------|-----------------|-------------------|-----------------|
|------------------|-----------------|-------------------|-----------------|

Guitar 1
|------------------|--------------------|----------------|-----------------|
|------------------|--------------------|----------------|-----------------|
|------------------|--------------------|----------------|-----------------|
|------------------|--------------------|----------------|-----------------|
|------------------|--------------------|----------------|-----------------|
|------------------|--------------------|----------------|-----------------|

Guitar 2
|--/////////8------|-8-10-11-10-10/13-11|--10--10--------|-18-16-15-13-15--|
|------------------|--------------------|------------11--|-18-16-15-13-15--|
|------------------|--------------------|----------------|-----------------|
|------------------|--------------------|----------------|-----------------|
|------------------|--------------------|----------------|-----------------|
|------------------|--------------------|----------------|-----------------|

Guitar 1
|------------------|--------------------|----------------|-----------------|
|------------------|--------------------|----------------|-----------------|
|------------------|--------------------|----------------|-----------------|
|------------------|--------------------|----------------|-----------------|
|------------------|--------------------|----------------|-----------------|
|------------------|--------------------|----------------|-----------------|

Guitar 2
|-13-16-15-13-11-13|-11----13-------15--|-------16-------|--//20--22--23~~-|
|-13-16-15-13-11-13|-11----15-------17--|-------18-------|-----------------|
|------------------|--------------------|----------------|-----------------|
|------------------|--------------------|----------------|-----------------|
|------------------|--------------------|----------------|-----------------|
|------------------|--------------------|----------------|-----------------|

Guitar 1
|------------------|--------------------|----------------|-----------------|
|------------------|--------------------|----------------|-----------------|
|------------------|--------------------|----------------|-----------------|
|------------------|--------------------|----------------|-----------------|
|------------------|--------------------|----------------|-----------------|
|------------------|--------------------|----------------|-----------------|

Guitar 2
|------------------|----------18-16-15--|-13-15-13-16-15-|13-11-13-11------|
|-21h23p21/20-21-21|-20-18-20-18-16-15--|-13-15-13-16-15-|13-11-13-11------|
|------------------|--------------------|----------------|-----------------|
|------------------|--------------------|----------------|-----------------|
|------------------|--------------------|----------------|-----------------|
|------------------|--------------------|----------------|-----------------|

Guitar 1
|------------------|----------------10--|--13-12---------|-------12--------|
|------------------|------------10------|--------13------|-13---------13---|
|------------------|--------10----------|------------12--|----12-----------|
|------------------|--------------------|----------------|-----------------|
|------------------|--------------------|----------------|-----------------|
|------------------|-0------------------|----------------|-----------------|

Guitar 2
|-13--15--11-------|--------------------|----------------|-----------------|
|-13--15--11-------|--------------------|----------------|-----------------|
|------------------|--------------------|----------------|-----------------|
|------------------|--------------------|----------------|-----------------|
|------------------|--------------------|----------------|-----------------|
|------------------|--------------------|----------------|-----------------|

Guitar 1
|------------------|--------------------|----------------|-----------------|
|------------------|--------------------|----------------|-----------------|
|------------------|--------------------|----------------|-----------------|
|------------------|--------------------|----------------|-----------------|
|------------------|--------------------|----------------|-----------------|
|-0~~~~~~~~--------|--------------------|----------------|-----------------|
Comments