Shadows Fall - Power Of I And I Chords & Tabs

 

Power Of I And I Chords & Tabs

Shadows Fall Chords & Tabs

Version: 1 Type: Tab 0 ratings
1 star 2 stars 3 stars 4 stars 5 stars
comments

Power Of I And I Tab

Shadows Fall - The Power of I and I SOLO
from "The War Within"
email: hollowseedaxeman@hotmail.com
Tuning: C G C F A D (low to high, I recommend 11's or 12's for this tuning)
b/r= bend a whole step, then release
fbw= full bend with wah-wah effect
(R)= release from previous measure
...= sweep picking, upward
:::= sweep picking, downward


 intro
D|----------------------------------------|--------------------10-13-12-10-12-0-------------|
A|------10-13p10----10--------------------|-------8-11-10---------------------0--13b/r-13b--|
F|--12b----------12----12-9-12-10-9-------|---------------9-10------------------------------|
C|----------------------------------8/10--|--7-/8-------------------------------------------|
G|----------------------------------------|-------------------------------------------------|
C|----------------------------------------|-------------------------------------------------|


D|-------------------------------------------------|-------6--10/13-10-------12-15p12-----------|
A|-(R)-10h11p10----11/13\11--10h11h13p10\8--8/10--|-----6-------------11/13----------13---------|
F|---------------12--------------------------------|---7----------------------------------------|
C|-------------------------------------------------|-0-----------------------------------15-14--|
G|-------------------------------------------------|--------------------------------------------|
C|-------------------------------------------------|--------------------------------------------|

[ Tab from: http://www.guitartabs.cc/tabs/s/shadows_fall/power_of_i_and_i_tab.html ]
D|--17p13----------13---17p13----17----13-17/20-18-17-18-17--|
A|--------15----15------------15----15-----------------------|
F|-----------14----------------------------------------------|
C|-----------------------------------------------------------|
G|-----------------------------------------------------------|
C|-----------------------------------------------------------|
          ..... :::::

D|--15p12-------------12h15p12----12h13ph15p13/10-12h13p12-12-------------------------------|
A|--------13-------13----------13-----------------------------15-13-----13fbw----10h13-13b--|
F|-----------12--x--------------------------------------------------0-0-------12------------|
C|------------------------------------------------------------------0-0---------------------|
G|------------------------------------------------------------------------------------------|
C|------------------------------------------------------------------------------------------|
          .....  :::::::::::::

D|--13br-13-10----10------------------------------------|
A|-------------13----13-10-------10---------------------|
F|-------------------------12/13----12-10----10-11-10\--|
C|----------------------------------------12------------|
G|------------------------------------------------------|
C|------------------------------------------------------|

That's the solo...

...here is the ending diminished lick

D|-----------12h15h18p15p12------------------15-18/21\18-15--------15h18p15---------|
A|--------14----------------14------------17----------------17--------------17------|
F|--12h15----------------------15/18---18----------------------18--------------18\--|
C|----------------------------------------------------------------------------------|
G|----------------------------------------------------------------------------------|
C|----------------------------------------------------------------------------------|
                                       ::::::::          ........
Enjoy!
Comments