Shadows Fall - Power Of I And I Chords & Tabs

 

Power Of I And I Chords & Tabs

Shadows Fall Chords & Tabs

Version: 1 Type: Bass Tab

Power Of I And I Bass Tab

Shadows Fall -  The Power of I and I

CGCF - Tuning


------------------|
------------------|
--------21--------|     IntroRiff
-4301210--4301210-|

-----------------|
-----------------|
------------4--3-|
010-430-010--00--|


--------------------------------------------|
--------------------------------------------|
-5--------1---3/4/3----------8-7-1-3~-------|
--001-0000-000-----0-1310-00----------------|      Verse
[ Tab from: http://www.guitartabs.cc/tabs/s/shadows_fall/power_of_i_and_i_btab.html ]
--------------------------------------|
-----------------------------7-5-2-3~-|
-5--------1---3/4/3-------------------|
--001-0000-000-----0-1310-00----------|


--------------------     ---------------------------|
--------------------     ---------------------------|
--------------87/35~     ---------------------------|
-56-0-353-000-------     -56-0-353-0000000000-------|      Chorus

--------------------     ---------------------|
--------------------     ---------------------|
--------------87-78~     ---------------------|
-56-0-353-000-------     -56-0-353-0000000000-|