Shadows Fall - Inspiration On Demand Chords & Tabs

 

Inspiration On Demand Chords & Tabs

Shadows Fall Chords & Tabs

Version: 2 Type: Tab 0 ratings
1 star 2 stars 3 stars 4 stars 5 stars
comments

Inspiration On Demand Tab

   
-------------------------------------------------------------------------------
			     Inspiration on Demand - Shadows Fall
-------------------------------------------------------------------------------
Tabbed by: Dre
Email: thrashcoursefromhell@verizon.net
As heard on The War Within (track # 6)
Tuning: Drop C

  Alrighty people, this is the intro to Inspiration on Demand. I tabbed it up to the
verse, after that I got me no idea what they play. Im workin on the rest of the song,
so look for it soon

Guitar 1 - Matt (rhythm)
Guitar 2 - Jon (lead)
guitar 3 - ?

Intro (distortion) - Both guitars (remember, its drop C)

 Intro                    P.M. .         P.M          P.M.  .  P.M .  .        PM.  .
|---------------------------------------------------------------------------------|
|---------------------------------------------------------------------------------|
|------3-3-------------5-----5--7----------------3-3------------------------------|
|------3-3-------------5-----5--7----------------3-3------------------------------|
|-0-1--1-1--0----0-0-- 3--0--3--5---0-0---0-1---1-1---0---0-0--1h3-0-0--3h5-------|
|-0-1-------0----0-0------0---------0-0---0-1---------0---0-0--1h3-0-0--3h5-------|


Heres the clean verse part, both guitars i believe.
Gtr. 1 & 2   Repeat 3x
|-------0--------------0--------------0-------------5-----------------------|
|-----6---6----------6---6----------6---6---------6--6----------------------|
|---7-------7------7-------7------7-------7-----7------7--------------------|
|-7--------------7--------------7-------------7-----------------------------|
|---------------------------------------------------------------------------|
|---------------------------------------------------------------------------|
end the verse on this
|-------0-------------------------------------------------------------------|
|-----6---6-----------------------------------------------------------------|
|---7-------7---------------------------------------------------------------|
|-7-------------------------------------------------------------------------|
|---------------------------------------------------------------------------|
|---------------------------------------------------------------------------|
[ Tab from: http://www.guitartabs.cc/tabs/s/shadows_fall/inspiration_on_demand_tab_ver_2.html ]
|---------------------------------------------------------------------------|
|---------------------------------------------------------------------------|
|---------------------------------------------------------------------------|
|---------------------------------------------------------------------------|
|---------------------------------------------------------------------------|
|---------------------------------------------------------------------------|

Heres what the harmony COULD be

guitar 2 (Jon)
|-----------------------------------------------------------------------------|
|-----5-6-8-6-5~~-------------------------------------------------------------|
|-5/7-------------------------------------------------------------------------|
|-----------------------------------------------------------------------------|
|-----------------------------------------------------------------------------|
|-----------------------------------------------------------------------------|
guitar 3
|---------------------------------------------------------------------------|
|---------------------------------------------------------------------------|
|---------------------------------------------------------------------------|
|---------------------------------------------------------------------------|
|---------------------------------------------------------------------------|
|---------------------------------------------------------------------------|
Gtr. 2
|------------8----------------------------------------------------------------|
|-8-10-8-10---11-10-11~~------------------------------------------------------|
|-----------------------------------------------------------------------------|
|-----------------------------------------------------------------------------|
|-----------------------------------------------------------------------------|
|-----------------------------------------------------------------------------|
Gtr. 3
|--------------11-------------------------------------------------------------|
|-11-13-11-13----14-13-14~~---------------------------------------------------|
|-----------------------------------------------------------------------------|
|-----------------------------------------------------------------------------|
|-----------------------------------------------------------------------------|
|-----------------------------------------------------------------------------|


Ok, that wasn't so bad. leave a comment with corrections or crap like that, or email me


| P.M Palm Mute
| /  slide up
| h  hammer-on
| ~  vibrato
===============================================================================
Comments