Shadows Fall - Inspiration On Demand Chords & Tabs

 

Inspiration On Demand Chords & Tabs

Shadows Fall Chords & Tabs

Version: 1 Type: Bass Tab 0 ratings
1 star 2 stars 3 stars 4 stars 5 stars
comments

Inspiration On Demand Bass Tab

Artist:Shadows Fall
Album:War Within
Song Title:Inspiration on Demand
Tabber:ffbassplayer
e-mail:ffbassplayer_52389@yahoo.com
Tuning:CGCF

Intro x1
F:-----------------------------------------------------------------|
C:-----------------------------------------------------------------|
G:-------1--1---------3-3-5-----------1--1-------------------------|
C:-0-1-0------1-0-0-0-------0-0-0-1-0------1-0-0-0-3-5-0-0-5-7-----|

F:-----------------------------------------------------------------|
C:-----------------------------------------------------------------|
G:-----------------------------------------------------------------|
C:-8888888888888888-10101010101010-0-11111111----------------------|

Verse x1
F:-----------------------------------------------------------------|
C:-----------------------------------------------------------------|
G:---------------------------------------------------------3-------|
C:-0~---3~---1~--3~--0~---3~---1~--0~--3~--0~--3~--1~--1p3---------|

F:-----------------------------------------------------------------|
C:-----------------------------------------------------------------|
G:-5~--------------------------------------------------------------|
C:-----3~---1~---3-0-0-5-0-0-1111----------------------------------|

Pre-Chorus x1
F:-----------------------------------------------------------------|
C:-----------------------------------------------------------------|
G:-----------------------------------------------------------------|
C:-00000000-33333333-5555555555555555-00000000-33333333-11111111---|

F:-----------------------------------------------------------------|
C:-----------------------------------------------------------------|
G:-----------------------------------------------------------------|
C:-3-0-0-5-0-0-1111------------------------------------------------|
[ Tab from: http://www.guitartabs.cc/tabs/s/shadows_fall/inspiration_on_demand_btab.html ]
Chorus x2
F:-----------------------------------------------------------------|
C:-----------------------------------------------------------------|
G:-------1-1-1---------3-0-3/5-----------1-1-1---------------------|
C:-0-1-0-------1-0-0-0---------0-0-0-1-0-------0-0-0-3-5-0-0-5-7---|

F:-----------------------------------------------------------------|
C:-----------------------------------------------------------------|
G:-----------------------------------------------------------------|
C:-8888888888888888-1010101010101010/-11111111-3-5-6-3-5-6---------|

Bridge x2
F:------------------------------------------------------------------|
C:------------------------------------------------------------------|
G:------------------------------------------------------------------|
C:-6\5-0-8\7-0-3-0-1p0-0-0-0-0-0-0-6\5-0-8\7-0-3-0-1p0-0-0-3-5-6----|

Guitar Solo x1
F:------------------------------------------------------------------|
C:------------------------------------------------------------------|
G:------------------------------------------------------------------|
C:-00000000-33333333-5555555555555555-00000000-33333333-55555555----|
        BACK TO CHORUS
F:-----------/------------------------------------------------------|
C:----------/-------------------------------------------------------|
G:---------/--------------------------------------------------------|
C:-5555555/---------------------------------------------------------|

Outro Chorus x1
F:------------------------------------------------------------------|
C:------------------------------------------------------------------|
G:-------1-1-1---------3-0-3/5-----------1-1-1----------------------|
C:0-0-1-0-------1-0-0-0---------0-0-0-1-0------1-0-0-0-3-5-0-0-5-7--|

F:------------------------------------------------------------------|
C:------------------------------------------------------------------|
G:------------------------------------------------------------------|
C:-88888888-1010101010101010-111111-1-3-0-0-5-0-0-1-0-0-------------|
Comments