Shadows Fall - Fleshold Chords & Tabs

 

Fleshold Chords & Tabs

Shadows Fall Chords & Tabs

Version: 1 Type: Tab 0 ratings
1 star 2 stars 3 stars 4 stars 5 stars
comments

Fleshold Tab

Title: Fleshold
Band: Shadows Fall
Album: Of One Blood
Tabbed By:  Eviscera

I usually tune down to B so, thatís the way I play the song.  This sounds pretty accurate but when I saw the band, they played it in something like drop-C.  I still play it this way.

Enjoy


Opening (riff 1)
--------------------------|
--------------------------|
--------------------------|
-5-/-4--------------------|
-3-/-2---4-4-5-5-2-2------|
---------2-2-3-3-0-0------|
       pm__________

The riff after the opening is just double picking on an open E and A on the second fret.  You really just have to listen to it.  (riff 2)


Chorus
---------------------------------------|
---------------------------------------|
---------------------------------------|
--9----7-/-9--7-/-9--4-----5-4-----|
--7----5-/-7--5-/-7--2-----3-2-5---|
-----0--------------------0-------3---|
pm__                         __






[ Tab from: http://www.guitartabs.cc/tabs/s/shadows_fall/fleshold_tab.html ]
this is the really fast riff after the second chorus.  Its fun as hell.  (riff 3)

--------------------------------------------------------|
--------------------------------------------------------|
------------------------------------------------------|
--7--------------------------5-----------------5----|
------6------------2------------4------4--6-----4---|
---------0--0--0--0--0--0---------0-----------------|
pm       ______      _____        ___


fill 1                Just Let Me Die!
------------------------------------------------------|
------------------------------------------------------|
------------------------------------------------------|
-------------------------------5-------------4------|
--3--3------------------------3----5---4---2-----|
--1--1------------------------------3---2---2-----|
pm__

Order Of Fleshold
Riff 1  12 times
Riff 2  24 time
Chorus  4 times
Riff 2  8 times
Chorus  4 times
Riff 3  4 times
Riff 1  16 times
Fill 1  1 time
Riff 3  8 times  (slow)
Riff 2  24 times
Chorus  4 times
Riff 3  4times
END
Comments