Shadows Fall - Enlightened By The Cold Chords & Tabs

 

Enlightened By The Cold Chords & Tabs

Shadows Fall Chords & Tabs

Version: 1 Type: Bass Tab 0 ratings
1 star 2 stars 3 stars 4 stars 5 stars
comments

Enlightened By The Cold Bass Tab

   
Band:  Shadows Fall
Album: The War Within
Song:  Enlightened by the Cold

Copyrighted Century Media 2004
Version 1.0 - 12/18/04

Transcribed By: Jacob Fitzlaff
Email:     tomorrowisdread@hotmail.com


.  - palm mute           /  - slide up to
\  - slide down to       ~  - vibrato
h  - hammer on           b  - Bend
p  - pull off            Suffixes for bend
t  - tap                 f  - full bend    h - half bend
ph - pinched harmonic    q  - quarter bend t - tap bend
*  - see comment         ^  - Hold bend    r release bend
x  - Stuccatto           ~  - vibrato bend
,  - slight palm mute    () - ghost note, sustained note
"  - tremolo note        <> - Trill

Tunning C G C F

Intro
|---------------------------------------------------|
|---------------------------------------------------|
|-------------------------------------------3-(5b)--| x2
|--56-00-32-00-57-00-1-0-0-0-56-00-32-00-0-5--------|

        Hold the (5b) second time only


Verse
|-------------------------------------------------------------|
|-----------------------------------------------9h10----------|
|--------------------------------------7-9-10-9------10-------|
|--1-0-0-0-0-0-(rest)-0-3-0-56-1-0-0-0------------------------|



|----------------------------------------------------|
|------------------------------------5-3---3-2-------|
|----------------------------------------5-----3-----|
|--1-0-0-0-0-(rest)-0-3-0-56-1-0-0-0-----------------|
[ Tab from: http://www.guitartabs.cc/tabs/s/shadows_fall/enlightened_by_the_cold_btab.html ]
|-------------------------------------------------------------|
|-----------------------------------------------9h10----------|
|--------------------------------------7-9-10-9------10-------|
|--1-0-0-0-0-0-0-0-0-0-3-0-56-1-0-0-0-------------------------|

|----------------------------------------------------|
|------------------------------------5-3---3-2-------|
|----------------------------------------5-----3-----|
|--1-0-0-0-0-0-0-0-0-0-3-0-56-1-0-0-0-----------------|

Chorus
|----------------------------------------------|
|----------------------------------------------|
|--3-3/5-555-5\3-33----------------------------|
|----------------------------------------------|

Fill 1 (comes imediately after the first chorus
|------------------------------|
|------------------------------|
|------------------------------|
|-00--00-----------------------|

Bridge (before solo)
|---------------------------------|
|--------3-----5----------2-------|
|-------5-5---3-3----------3------|   x3
|-0-0-0-----0-----0-0-0-2---------|

|-------------------------------|
|--------3----------------------|
|-------5-5---------1-0---------|
|-0-0-0-----0-0-0-0-------------|

Solo
|----------------------------------------------|
|----------------------------------------------|
|-------5-----3--------------5-----3-----1-0---|
|-0-0-0---0-0---0-0-32-0-0-0---0-0---0-0-------|

There you go. Not really a hard song. If I missed anything,
or got something wrong feel free to make corrections.

END
Comments