Shadows Fall - Destroyer Of Senses Chords & Tabs

 

Destroyer Of Senses Chords & Tabs

Shadows Fall Chords & Tabs

Version: 1 Type: Tab 0 ratings
1 star 2 stars 3 stars 4 stars 5 stars
comments

Destroyer Of Senses Tab

Intro--
|-----------------|-----------------|-----------------|-----------------|
|-----------------|-----------------|-----------------|-----------------|
|-----------------|-----------------|-----------------|-----------------|
|-------------3---|---7-5-----------|-------------3---|---7-5-----------|
|-0-1-0-5-3-0-1-3-|-0-5\3-0-3-5-0-6-|-0-1-0-5-3-0-1-3-|-0-5\3-0-3-5-3h5-|
|-0-1-0-5-3-0---3-|-0-----0-3-5-0-6-|-0-1-0-5-3-0---3-|-0-----0-3-5-----|


|-------------|-----------------|----------------|---------------|
|-------------|-----------------|----------------|---------------|
|-------------|-----------------|----------------|---------------|
|-------------|-----------------|----------------|---------------|
|-0-----6---5-|-0-0-0--3-5-00-0-|-5~--0--6-----5-|-0-0-0-1-3-6---|
|-0-----6---5-|-0-0-0--3-5-00-0-|-----0--6-----5-|-0-0-0-1-3-6---|

|-------------|-----------------|----------------|-----------------|
|-------------|-----------------|----------------|-----------------|
|-------------|-----------------|----------------|-----------------|
|-------------|-----------------|-ph-------------|-----------------|
|-0-----6---5-|-0-0-0--3-5-00-0-|-5~--0--6-----5-|-0-0-0-0-0-0-0-0-|
|-0-----6---5-|-0-0-0--3-5-00-0-|-----0--6-----5-|-0-0-0-0-0-0-0-0-|


|-----------------|---------------------|----------------12--8------|
|-----------------|---------------------|--------11------13------11-|
|-----------------|---------------------|----9---12--9-------12--10-|
|-----------------|---------------------|-7--10------10-------------|
|-0-0-0-0-0-0-0-0-|-00-0-00-0-00-0-00-0-|-8-------------------------|
|-0-0-0-0-0-0-0-0-|-00-0-00-0-00-0-00-0-|---------------------------|

|-------------|-----------------|----------------|---------------|
|-------------|-----------------|----------------|---------------|
|-------------|-----------------|----------------|---------------|
|-------------|-----------------|----------------|---------------|
|-0-----6---5-|-0-0-0--3-5-00-0-|-5~--0--6-----5-|-0-0-0-1-3-6---|
|-0-----6---5-|-0-0-0--3-5-00-0-|-----0--6-----5-|-0-0-0-1-3-6---|

|-------------|-----------------|----------------|---------------|
|-------------|-----------------|----------------|---------------|
|-------------|-----------------|----------------|---------------|
|-------------|-----------------|-ph-------------|---------------|
|-0-----6---5-|-0-0-0--3-5-00-0-|-5~--0--6-----5-|-0-0-0-1-3-6---|
|-0-----6---5-|-0-0-0--3-5-00-0-|-----0--6-----5-|-0-0-0-1-3-6---|

|-------------|-------------|---------------|
|-------------|-0--(0)------|---------------|
|-------------|-0--(0)------|---------------|
|-------------|-0--(0)------|-pick scrape---|
|-0--(0)------|-0--(0)------|-x\\\\\\\------|
|-0--(0)------|-------------|---------------|

[ Tab from: http://www.guitartabs.cc/tabs/s/shadows_fall/destroyer_of_senses_tab.html ]
|-----------------|-----------------|-------------------|
|-----------------|-----------------|-------------------|
|o----------------|----------------o|-------------------|
|o----------------|----------------o|-------------------|
|-5-3-0-5-3-0-5-3-|-0-5-3-0-6-6-6-6-|-0-5-3-0-6----1----|
|-5-3-0-5-3-0-5-3-|-0-5-3-0-6-6-6-6-|-0-5-3-0-6-00-1-00-|

|-----------------|-----------------|-----------------|-----------------|
|-----------------|-----------------|-----------------|-----------------|
|-----------------|-----------------|-----------------|-----------------|
|-----------------|-----------------|-----------------|-----------------|
|-5-3-0-5-3-0-5-3-|-0-5-3-0-6---6---|-5-3-0-5-3-0-5-3-|-0-5-3-0-6\--1---|
|-5-3-0-5-3-0-5-3-|-0-5-3-0-6---6---|-5-3-0-5-3-0-5-3-|-0-5-3-0-6\--1---|


|-----------------|-----------------|-----------------|
|-----------------|-----------------|-----------------|
|o----------------|----------------o|-----------------|
|o----------------|----------------o|-----------------|
|-5-3-0-5-3-0-5-3-|-0-5-3-0-6-6-6-6-|-0-5-3-0-6\--1---|
|-5-3-0-5-3-0-5-3-|-0-5-3-0-6-6-6-6-|-0-5-3-0-6\--1---|

|-----------------|---------------------|
|-----------------|---------------------|
|-----------------|---------------------|
|-----------------|---------------------|
|-0-0-0-0-0-0-0-0-|---------------------|
|-0-0-0-0-0-0-0-0-|-00-0-00-0-00-0-00-0-|


Solo--
|---------------|----------------------|---------------|------------|
|----------ph---|----------------ph----|---------------|-------phph-|
|-8f--8fr--7~---|-(7)--5h7p5---5-7~----|-10f----t15p3r-|-3p2---2-3~-|
|---------------|------------7-------x-|---------------|-----3------|
|---------------|--------------------x-|---------------|------------|
|---------------|----------------------|---------------|------------|

|-10-8------10-8------12-8------10-10----|-10h14p10----10h14p10--------------|
|------10-8------10-8------10-8-------11-|----------11----------11-----------|
|----------------------------------------|-----------------------------------|
|----------------------------------------|-----------------------------------|
|----------------------------------------|-----------------------------------|
|----------------------------------------|-----------------------------------|

10h13p10h13-||-10h13p10h13--15f~-12h13h15p13p12h13p12------|
------------||---------------------------15p13p11-13p11\10-|
------------||---------------------------------------------|
------------||---------------------------------------------|
------------||---------------------------------------------|
------------||---------------------------------------------|

|------------------------------------|
|-13p11p10-11p10---------------------|
|----------------12p10p9-10p9-7--(7)-|
|------------------------------------|
|------------------------------------|
|------------------------------------|

End Part--
|-----------------|-----------------|-----------|-----------|
|-----------------|-----------------|-----------|-----------|
|-7-6-5-----------|-7-6-5-----------|-----------|-----------|
|-7-6-5-7-6-5-----|-7-6-5-7-6-5-----|-----------|-----------|
|-------7-6-5-3-5-|-------7-6-5-3-5-|-0----6--5-|-0-0-0-3-5-|
|-------------3-5-|-------------3-5-|-0----6--5-|-0-0-0-3-5-|
Comments