Shadows Fall - Deadworld Chords & Tabs

 

Deadworld Chords & Tabs

Shadows Fall Chords & Tabs

Version: 1 Type: Tab 0 ratings
1 star 2 stars 3 stars 4 stars 5 stars
comments

Deadworld Tab

ALBUM:FEAR WILL DRAG YOU DOWN
SONG:DEADWORLD
TUNING:DROP C (CGCFAD)

* = PALM MUTE
BR = BEND RAPIDLY
~ = LET NOTE RING
/ = SLIDE
" = TREMELO PICK (PICK AS FAST AS YOU CAN)

     I TABBED THIS BECAUSE I COULDNT FIND THE WHOLE SONG ANYWHERE
     IM PRETTY SURE ITS ABOUT 95% ACCURATE.

LISTEN TO THE SONG TO WORK OUT HOW MANY TIMES TO PLAY THE SONG TO WORK OUT HOW MANY 
TO PLAY THE INTRO.


    INTRO (PART1)
D------------------------------------------------------------|
A------------------------------------------------------------|
F--15-14-15-14-15-14-15-14-15-14-15-14-15-14-15-14-----------|
C------------------------------------------------------------|
G------------------------------------------------------------|
C------------------------------------------------------------|


   INTRO (PART2)
D-------------------------------------------------------------|
A-------------------------------------------------------------|
F-------------------------------------------------------------|
C--15-14-15-14-15-14-15-14-15-14-15-14-15-14-15-14------------|
G-------------------------------------------------------------|
C-------------------------------------------------------------|


   INTRO (PART 3)
D-------------------------------------------------------------|
A-------------------------------------------------------------|
F--------------------------------7BR-------7BR------7BR-------|
C--8---------5555----------------7BR-------7BR------7BR-------|
G--8--------------777-88--------------------------------------|
C--8-88888-----------------0000-------000--------0------------|
     ****    **** *** **   ****       ***        *


D------------------------------------------------------------------|
A------------------------------------------------------------------|
F-------5-4-------5-4-7-5-4---------------7BR-------7BR-----7BR----|
C-----------5-----------------------------7BR-------7BR-----7BR----| X2(PART3)
G--1----------7----------------------------------------------------|
C--1--------------------------------0000-------000-------0---------|
                                    ****       ***       *

   VERSE (PART 1)
D---------------------------------------------|
A---------------------------------------------|
F---------------------------------------------|
C---7---7---555-888----7---7---555------------|
G---5---5---333-666----5---5---333-333--------|
C-0---0---0----------0---0---0-----333--------|
  *   *   *          *   *   *


  VERSE (PART 2)
D----------------------------------------------|
A----------------------------------------------|
F---------------------10-9---10-9---9-10-------|
C--------------------------8------8------------|
G-0-6-7-0-6-7-0-6------------------------------|
C-0-6-7-0-6-7-0-6------------------------------|
  * * * * * * * *

[ Tab from: http://www.guitartabs.cc/tabs/s/shadows_fall/deadworld_tab.html ]
  VERSE (PART 3)
D------------------------------------------|
A------------------------------------------|
F------------------------------------------|
C------------------------------------------|
G-0-6-0-0-6-0-4/7--0-6-0-0-6-0-2/3---------|
C-0-6-0-0-6-0-4/7--0-6-0-0-6-0-2/3---------|
  * * * *   *      * * * *   *

  END VERSE WITH THIS
D-----------------|
A-----------------|
F-----------------|
C-----------------|
G-0-0-0-0-6-------|
C-0-0-0-0-6-------|
  * * * *

   CHORUS
D--------------------------------------------------------------------|
A--------------------------------------------------------------------|
F--------------------------------------------------------------------|
C------------7-5-----------------------------------------------------|
G-00-0-0-0-----------8-7-----8-----------8-8~-8-8~-10-10~--7-8-7~----|
C-00-0-0-0--------0-------0-----10-------8-8~-8-8~-10-10~------------|
  ** * * *        *       *              *    *    *

   END CHORUS WITH THIS
D-----------------------------------|
A-----------------------------------|
F-----------------------------------|
C-----------------------------------|
G-6"-9"-8"-6"-9"-8"-6"-8"-----------|
C-----------------------------------|

THEN PLAY
VERSE (PART 3)
CHORUS

  THEN THIS (AT END OF CHRUS 2ND TIME)
D---------------------------------------|
A---------------------------------------|
F---------------------------------------|
C------------7-5------------------------| X4
G-00-0-0-0-----------8-7-----8----------|
C-00-0-0-0--------0-------0-----10------|
  ** * * *        *       *

  NEXT RIFF
D-------------------------|
A-------------------------|
F-------------------------|
C-4~~-3~~----7~~-6~~------|
G-2~~-1~~----5~~-4~~------|
C-------------------------|


   ACCUSTIC SECTION  X4

D----------------------------0----------------------------------------------|
A-------0------------------2---2---0-------------0--------------------------|
F-----0---0---0----------0-------0-------------0---0---0--------7/6----6/5--|
C---4-------4----------4---------------------4-------4----------------------|
G-2------------------2---------------------2------------------5------4------|
C---------------------------------------------------------------------------|


  OVER SOLO

D-------------------------------------|
A-------------------------------------|
F-------------------------------------|
C--4-3----7---7-6---7~~-6~~-----------|
G--2-1----5---5-4---5~~-4~~-----------|
C------00---0-----0-------------------|
       **   *     *

   PRE-OUTRO
D--------------------------------------------------|
A--------------------------------------------------|
F--------------------------------------------------|
C--------------------------------------------------|
G-00-0-0-0--00-0-0-0--6"-9"-8"-6"-9"-8"-6"-8"------|
C-00-0-0-0--00-0-0-0-------------------------------|
  ** * * *  ** * * *

  OUTRO  "BORN IN A DEAD WORLD!!....."
D-------------------------------------------|
A-------------------------------------------|
F-------------------------------------------|
C-------------------------------------------|
G-3-2--6"-9"-8"-6"-9"-8"-6"-8"----1-0-------|
C-3-2-----------------------------1-0-------|
  * *                             *

  THATS ALL ITS A GOOD FAST SONG TO PLAY,ANY COMMENTS OR WANT ME TO TAB
  A SONG EMAIL ME AT, GUITAR_HERO_84@HOTMAIL.COM
  ENJOY.


  TABBED BY:TAB_MAN84
Comments