Shadows Fall - Deadworld Chords & Tabs

 

Deadworld Chords & Tabs

Shadows Fall Chords & Tabs

Version: 1 Type: Bass Tab 0 ratings
1 star 2 stars 3 stars 4 stars 5 stars
comments

Deadworld Bass Tab

   
Band - Shadows Fall
Song - Deadworld

Tuning: C G C F

Intro:
F |----------------|------------------------------------------------|
C |----------------|------------------------------------------------|
G |----------------|------------------------------5-----5----5/6\5--|
C |--10~-2~-8~-0~--|--3333-555-777-55-33-55--0000---000---00--------|

F |-------------------------------------------|---------------------|
C |-------------------------------------------|---------------------|
G |--3-2-0-2-3-2-5-3-2------5-----5----5/6\5--|---------------------|
C |--------------------0000---000---00--------|--10~-2~-8~-0~-------|

F |------------------------------------------------|-------------------------------------------| 
C |------------------------------------------------|-------------------------------------------| 
G |------------------------------5-----5----5/6\5--|--3-2-0-2-3-2-5-3-2------5-----5----5/6\5--| 
C |--3333-555-777-55-33-55--0000---000---00--------|--------------------0000---000---00--------| 

F |-------------------------------------------|-------|
C |-------------------------------------------|-------|
G |--3-2-0-2-3-2-5-3-2------5-----5----5/6\5--|-------|
C |--------------------0000---000---00--------|--12\--|

Verse:
F |---------------------------------|
C |---------------------------------|
G |---------33---55--------33-------|
C |--00-000----0----00-000----0-33--|

Fill:
F |-------------------|
C |-------------------|
G |-------------------|
C |--3-2-0-3-2-0-2-3--|

Verse:
F |---------------------------|
C |---------------------------|
G |-------3-2-0-2--------2-3--|
C |--0000---------000000------|
[ Tab from: http://www.guitartabs.cc/tabs/s/shadows_fall/deadworld_btab.html ]
F |---------------------------|
C |---------------------------|
G |-------3-2-0-2--------3-2--|
C |--0000---------000000------|

Fill:
F |------------|
C |------------|
G |------------|
C |--00-0-0-7--|

Chorus:
F |----------------------------------------|
C |-------------------------------3p2h3p2--|
G |-------12p10-10p8-7h8-------------------|
C |--0000----------------00-00-33----------|

Interlude:
F |-------------------|
C |--0-3-2-0-3-2-0-2--|
G |-------------------|
C |-------------------|

Verse:
F |---------------------------|
C |---------------------------|
G |-------3-2-0-2--------2-3--|
C |--0000---------000000------|

F |---------------------------|
C |---------------------------|
G |-------3-2-0-2--------3-2--|
C |--0000---------000000------|

Fill:
F |------------|
C |------------|
G |------------|
C |--00-0-0-7--|

Chorus:
F |----------------------------------------|
C |-------------------------------3p2h3p2--|
G |-------12p10-10p8-7h8-------------------|
C |--0000----------------00-00-33----------|

Interlude:
F |-------------------|
C |--0-3-2-0-3-2-0-2--|
G |-------------------|
C |-------------------|

Bridge:
F |-----------------------||------------------||----------------||-------------------------|
C |-----------------------||------------------||----------------||-------------------------|
G |-------12p10-10p8-7h8--||------------------||--2~-0~-2~-5-3--||--2~-0~-xxxx-xxxx-5-3-2--|
C |--0000-----------------||--000-00-00-3002--||----------------||-------------------------|

Ending:
F |---------------------------------|
C |----------------0-3-2-0-3-2-0-2--|
G |---------------------------------|
C |--00000-00-3002------------------|

End.
Comments