Shadows Fall - Act Of Contrition Chords & Tabs

 

Act Of Contrition Chords & Tabs

Shadows Fall Chords & Tabs

Version: 1 Type: Bass Tab 0 ratings
1 star 2 stars 3 stars 4 stars 5 stars
comments

Act Of Contrition Bass Tab

Band- Shadows Fall
Song- Act Of Contrition

tuning (low to high) - C G C F

Riff 1 x2
|-------------------------------------|
|-------------------------------------|
|-5-----5-----7-----7-----7--7--5--7--|
|---0-0---0-0---0-0---0-0-------------|

Riff 2 x2
|---------------------------------3-----------5-|
|-3-3---3-3---330---2-2---3-3---3-----3-3---3---|
|-----------------------------------------------|
|-----0-----0-----0-----0-----0-----0-----0-----|

rest for 3 bars

Riff 3
|-------------------------------------------------|
|-------------------------------------------------|
|-3-----0-----0-3-----------------3-----0-1---0-3-|
|---0-0---0-0-----0-0-0-0-0-0-0-0---0-0-----0-----|

|-------------------------------------------------|
|-------------------------------------------------|
|-3-----0-----0-3-----------------3-----0-1---0---|
|---0-0---0-0-----0-0-0-0-0-0-0-0---0-0-----0---2-|

|-----------------------------------------------------|
|-----------------------------------------------------|
|-------5---9-8-7-8-7-8-9-7-------5---8-7-6-7-6-7-8-6-|
|-0-0-0---0-----------------0-0-0---0-----------------|

|-----------------------------------------------------|
|-----------------------------------------------------|
|-------5---9-8-7-8-7-8-9-7-------5-------------------|
|-0-0-0---0-----------------0-0-0---0-2-2-2-2-3-3-3-3-|

Riff 4
|--------------------------------------------------------------------|
|--------------------------------------------------------------------|
|-5-3-----------------------------3---0---3---5-3-0------------------|
|-----0-0-0-0-0-0-0-0-0-0-0-0-0-0---0---0---0-------0-0-0-0--0-0-0-0-|

|----------------------------------|
|----------------------------------|
|--------------3-0---1-0---3-7---5-|
|-0-0-0-0--0-0-----0-----0-----0---|

Riff 1 x2

Riff 3 x1

Riff 4 x1

Riff 5 x2
|-----------------------------------------------|
|-----------------------------------------------|
|-5-3---------------------------0---3---0---0---|
|-----0-0-0-0-0-0-0-0-0-0-0-0-0---0---0---0---5-|

Fill 1
|----------|--------|--------|--------|--------|
|----------|--------|--------|--------|--------|
|----------|--------|--------|--------|--------|
|-2--------|--------|--------|--------|--------|
[ Tab from: http://www.guitartabs.cc/tabs/s/shadows_fall/act_of_contrition_btab.html ]
Riff 6 x2
|------------------------|------------------------|------------------------|
|------------------------|------------------------|------------------------|
|------------------------|------------------------|------------------------|
|-0------0------0-0------|-0------0------0-0------|-0------0------0-0------|

|----------------------|
|----------------------|
|----------------------|
|-0------0------0------|

Riff 7
|--------------------|--------------------------------|-------------------------------|
|--------------------|--------------------------------|-------------------------------|
|--------------------|-3------------------------------|-3---3---3---------------------|
|-0-0--0-0--0--0-0-0-|---0-0-0-0-0-0-0-0-0-0--0-0-0-0-|---0---0---0-0-0-0-0-0-0-0-0-0-|

|------------------------------|---------------|-------------|------------|
|------------------------------|---------------|-------------|------------|
|-0---0---0--------------------|-3-----3-----3-|-------------|------------|
|---0---0---000-0-0-0-0-0-0-00-|----0-----0----|-0--0--0--0--|-0--0--0----|

|------------------|------------------------|---------------------|------------------|
|------------------|------------------------|---------------------|------------------|
|------0----0----0-|-3------------------3---|----0-------0--------|----------3-----0-|
|-0--0----0----0---|---0-0-0-00-0-0-0-0---0-|-0-----0-0-----0-0-0-|-0--0-0-0---0-0---|

|------------------|-------------------------|----------|----------|
|------------------|-------------------------|----------|----------|
|-----0------------|-5-----5-----7-----7-----|-7--------|-3--------|
|-0-0---0-0-0-0-00-|---0-0---0-0---0-0---0-0-|----------|----------|

Riff 3 x1

Riff 8
|-----------------------------------------------------------------|
|-----------------------------------------------------------------|
|-5-3-----------------------------3---0-3-5-3-0-------------------|
|-----0-0-0-0-0-0-0-0-0-0-0-0-0-0---0-----------0-0-0-0--0-0-0-0--|

|----------------------------------|-------------------------------|
|----------------------------------|-------------------------------|
|--------------3-0---1-0---3-7---5-|-5-3---------------------------|
|-0-0-0-0--0-0-----0-----0-----0---|-----0-0-0-0-0-0-0-0-0-0-0-0-0-|

|----------------------------------------------------------|
|----------------------------------------------------------|
|-3---0-3-5-3-0-----------------------3-0---1-0---5-0-5----|
|---0-----------0-0-0-0--0-0-0-0--0-0-----0-----0----------|

Comments