Shadows Fall - A Fire In Babylon Chords & Tabs

 

A Fire In Babylon Chords & Tabs

Shadows Fall Chords & Tabs

Version: 1 Type: Bass Tab 0 ratings
1 star 2 stars 3 stars 4 stars 5 stars
comments

A Fire In Babylon Bass Tab

Band- Shadows Fall
Song- A Fire In Babylon

F||--------------------|------------------|-------------------|
C||*-------------------|------------------|--3----------------|
G||*--0----------------|------------------|-------------------|
C||--------------------|------------------|-------------------|


                                                                                
--------------------||---------|-------|--------|--------||--------------------|
--5----------------*||*--2--2--|--2----|--3--3--|--5----*||--------------------|
-------------------*||*--------|-------|--------|-------*||--------------------|
--------------------||---------|-------|--------|--------||--7--------9--------|


                                                                              
---------------------|--------------------|-------|------|------|------|-----|
---------------------|--------------------|-------|------|------|------|--0--|
---------------------|--------------------|-------|------|------|------|-----|
--10--------9--------|--7--------5--------|--7----|------|------|------|-----|


                                                                           
--------------------|-----|--------------------|-----|--------------------|
----------------0-0-|--0--|----------------0-0-|--0--|----------------0-0-|
--------------------|-----|--------------------|-----|--------------------|
--------------------|-----|--------------------|-----|--------------------|


                                                      
-----|--------------------|--------------------------|
--0--|----------------0-0-|--------7-----7-----------|
-----|--------------------|-----------------8--------|
-----|--------------------|--0--0-----0--------0--0--|


                                                      
--------------------------|--------------------------|
--5-----5-----------------|--------3-----3-----------|
-----------8--7-----------|-----------------5--------|
-----0-----------0----0-0-|--0--0-----0--------0--0--|


                                                      
--------------------------|--------------------------|
--5-----5--3--2-----0--2--|--------7-----7-----------|
--------------------------|-----------------8--------|
-----0-----------0--------|--0--0-----0--------0--0--|


                                                      
--------------------------|--------------------------|
--5-----5-----------------|--------3-----3-----------|
-----------8--7-----------|-----------------5--------|
-----0-----------0----0-0-|--0--0-----0--------0--0--|


                                                      
--------------------------|--------------------------|
--5-----5--3--2-----0--2--|--------7-----7-----------|
--------------------------|-----------------8--------|
-----0-----------0--------|--0--0-----0--------0--0--|


                                                      
--------------------------|--------------------------|
--5-----5-----------------|--------3-----3-----------|
-----------8--7-----------|-----------------5--------|
-----0-----------0----0-0-|--0--0-----0--------0--0--|


                                                      
--------------------------|--------------------------|
--5-----5--3--2-----0--2--|--------7-----7-----------|
--------------------------|-----------------8--------|
-----0-----------0--------|--0--0-----0--------0--0--|


                                                      
--------------------------|--------------------------|
--5-----5-----------------|--------3-----3-----------|
-----------8--7-----------|-----------------5--------|
-----0-----------0----0-0-|--0--0-----0--------0--0--|


                                                                         
--------------------------|----------------------|----------------------|
--5-----5--3--2-----0--2--|----------------------|----------------------|
--------------------------|----------------------|-----------------7----|
-----0-----------0--------|--7------9------10----|----12------7---------|


                                                                     
----------------------|----------------------|----------------------|
----------------------|----------------------|----------------------|
----------------------|-----------------7----|----------------------|
--7------9------10----|----12------7---------|--7------9------10----|


                                                                     
----------------------|----------------------|----------------------|
----------------------|----------------------|----------------------|
-----------------7----|----------------------|-----------------7----|
----12------7---------|--7------9------10----|----12------7---------|


                                                                             
---------------------------|--------------------------|---------------------|
---------------------------|--------------------------|---------------------|
--8--------7-----10-----8--|--------7--8--------7--8--|---------------------|
-----0--0-----0------0-----|----0-0---------0-0-------|--2------2------3----|


                                                                             
---------------------|---------------------------|--------------------------|
---------------------|---------------------------|--------------------------|
---------------------|--8--------7-----10-----8--|--------7--8--------7--8--|
--2------2------3----|-----0--0-----0------0-----|----0-0---------0-0-------|


                                                                        
---------------------|---------------------|---------------------------|
---------------------|---------------------|---------------------------|
---------------------|---------------------|--8--------7-----10-----8--|
--2------2------3----|--2------2------3----|-----0--0-----0------0-----|


                                                                       
--------------------------|---------------------|---------------------|
--------------------------|---------------------|---------------------|
--------7--8--------7--8--|---------------------|---------------------|
----0-0---------0-0-------|--2------2------3----|--2------2------3----|


                                                                             
---------------------------|--------------------------|---------------------|
---------------------------|--------------------------|---------------------|
--8--------7-----10-----8--|--------7--8--------7--8--|---------------------|
-----0--0-----0------0-----|----0-0---------0-0-------|--2------2------3----|


                                                                   
---------------------|-----------------------|--------------------|
---------------------|-----------------------|--------------------|
---------------------|-----------------------|-----------------3--|
--2------2------3----|--7--7----5----7----3--|--3-----------------|


                                                               
--------------------|--------------------|--------------------|
--------------------|--------------------|--------------------|
--3-----------------|-----------------3--|--3-----------------|
-----------------3--|--3-----------------|-----------------3--|


                                                                    
--------------------|-------------------------|--------------------|
--------------------|-------------------------|--------------------|
-----------------3--|-------------------------|-----------------3--|
--3-----------------|--3--3--3--3--3--5----2--|--3-----------------|


                                                               
--------------------|--------------------|--------------------|
--------------------|--------------------|--------------------|
--3-----------------|-----------------3--|--3-----------------|
-----------------3--|--3-----------------|-----------------3--|


                                                                         
--------------------|-------------------------|-------------------------|
--------------------|-------------------------|-------------------------|
-----------------3--|-------------------------|-------------------------|
--3-----------------|--3--3--3--3--3--5----2--|----2--2--2--2--2--2--3--|


                                                        
-----------------------|----|--------------------------|
-----------------------|----|--------7-----7-----------|
-----------------------|----|-----------------8--------|
----3--3--3--3--5------|----|--0--0-----0--------0--0--|


                                                      
--------------------------|--------------------------|
--5-----5-----------------|--------3-----3-----------|
-----------8--7-----------|-----------------5--------|
-----0-----------0----0-0-|--0--0-----0--------0--0--|


                                                      
--------------------------|--------------------------|
--5-----5--3--2-----0--2--|--------7-----7-----------|
--------------------------|-----------------8--------|
-----0-----------0--------|--0--0-----0--------0--0--|


                                                      
--------------------------|--------------------------|
--5-----5-----------------|--------3-----3-----------|
-----------8--7-----------|-----------------5--------|
-----0-----------0----0-0-|--0--0-----0--------0--0--|


                                                      
--------------------------|--------------------------|
--5-----5--3--2-----0--2--|--------7-----7-----------|
--------------------------|-----------------8--------|
-----0-----------0--------|--0--0-----0--------0--0--|


                                                      
--------------------------|--------------------------|
--5-----5-----------------|--------3-----3-----------|
-----------8--7-----------|-----------------5--------|
-----0-----------0----0-0-|--0--0-----0--------0--0--|


                                                      
--------------------------|--------------------------|
--5-----5--3--2-----0--2--|--------7-----7-----------|
--------------------------|-----------------8--------|
-----0-----------0--------|--0--0-----0--------0--0--|


                                                      
--------------------------|--------------------------|
--5-----5-----------------|--------3-----3-----------|
-----------8--7-----------|-----------------5--------|
-----0-----------0----0-0-|--0--0-----0--------0--0--|


                                                                         
--------------------------|----------------------|----------------------|
--5-----5--3--2-----0--2--|----------------------|----------------------|
--------------------------|----------------------|-----------------7----|
-----0-----------0--------|--7------9------10----|----12------7---------|


                                                                     
----------------------|----------------------|----------------------|
----------------------|----------------------|----------------------|
----------------------|-----------------7----|----------------------|
--7------9------10----|----12------7---------|--7------9------10----|


                                                                     
----------------------|----------------------|----------------------|
----------------------|----------------------|----------------------|
-----------------7----|----------------------|-----------------7----|
----12------7---------|--7------9------10----|----12------7---------|


                                                                             
---------------------------|--------------------------|---------------------|
---------------------------|--------------------------|---------------------|
--8--------7-----10-----8--|--------7--8--------7--8--|---------------------|
-----0--0-----0------0-----|----0-0---------0-0-------|--2------2------3----|


                                                                             
---------------------|---------------------------|--------------------------|
---------------------|---------------------------|--------------------------|
---------------------|--8--------7-----10-----8--|--------7--8--------7--8--|
--2------2------3----|-----0--0-----0------0-----|----0-0---------0-0-------|


                                                                        
---------------------|---------------------|---------------------------|
---------------------|---------------------|---------------------------|
---------------------|---------------------|--8--------7-----10-----8--|
--2------2------3----|--2------2------3----|-----0--0-----0------0-----|


                                                                       
--------------------------|---------------------|---------------------|
--------------------------|---------------------|---------------------|
--------7--8--------7--8--|---------------------|---------------------|
----0-0---------0-0-------|--2------2------3----|--2------2------3----|


                                                                             
---------------------------|--------------------------|---------------------|
---------------------------|--------------------------|---------------------|
--8--------7-----10-----8--|--------7--8--------7--8--|---------------------|
-----0--0-----0------0-----|----0-0---------0-0-------|--2------2------3----|


                                                                   
---------------------|-----------------------|--------------------|
---------------------|-----------------------|--------------------|
---------------------|-----------------------|-----------------3--|
--2------2------3----|--7--7----5----7----3--|--3-----------------|


                                                               
--------------------|--------------------|--------------------|
--------------------|--------------------|--------------------|
--3-----------------|-----------------3--|--3-----------------|
-----------------3--|--3-----------------|-----------------3--|


                                                                    
--------------------|-------------------------|--------------------|
--------------------|-------------------------|--------------------|
-----------------3--|-------------------------|-----------------3--|
--3-----------------|--3--3--3--3--3--5----2--|--3-----------------|


                                                               
--------------------|--------------------|--------------------|
--------------------|--------------------|--------------------|
--3-----------------|-----------------3--|--3-----------------|
-----------------3--|--3-----------------|-----------------3--|


                                                                         
--------------------|-------------------------|-------------------------|
--------------------|-------------------------|-------------------------|
-----------------3--|-------------------------|-------------------------|
--3-----------------|--3--3--3--3--3--5----2--|----2--2--2--2--2--2--3--|


                                                                              
-----------------------|----|------------------------|-----------------------|
-----------------------|----|------------------------|-----------------------|
-----------------------|----|--0----0--0--0----0--0--|--0----0--0--0----0----|
----3--3--3--3--5------|----|------------------------|-----------------------|
[ Tab from: http://www.guitartabs.cc/tabs/s/shadows_fall/a_fire_in_babylon_btab.html ]

                                                                              
------------------------|--------------------------|-------------------------|
------------------------|--------------------------|-------------------------|
--0--0--0----0--0--0----|--5--5--3--5--7--5--3--2--|--3--3--0--3--5--5--0----|
------------------------|--------------------------|-------------------------|


                                                                            
-----------------------|------------------------|--------------------------|
-----------------------|------------------------|--------------------------|
--0----0--0--0----0----|--0--0--0----0--0--0----|--5--5--3--5--7--5--3--2--|
-----------------------|------------------------|--------------------------|


                                                                           
-------------------------|-----------------------|------------------------|
-------------------------|-----------------------|------------------------|
--3--3--0--3--5--5--0----|--0----0--0--0----0----|--0--0--0----0--0--0----|
-------------------------|-----------------------|------------------------|


                                                                             
--------------------------|-------------------------|-----------------------|
--------------------------|-------------------------|-----------------------|
--5--5--3--5--7--5--3--2--|--3--3--0--3--5--5--0----|--0----0--0--0----0----|
--------------------------|-------------------------|-----------------------|


                                                                        
------------------------|--------------------------|-------------------|
------------------------|--------------------------|-------------------|
--0--0--0----0--0--0----|--5--5--3--5--7--5--3--2--|--0----------------|
------------------------|--------------------------|-------------------|


                                                                      
------------------|--------|-------------------|---------------------|
------------------|--0--0--|-------------------|---------------------|
------------------|--------|--1----------------|--3--3----------3----|
------------------|--------|-------------------|---------------------|


                                                                        
-------------------|--------|-------------------|----------------------|
-------------------|--0--0--|-------------------|----------------------|
--4----------------|--------|--1----------------|----------------------|
-------------------|--------|-------------------|--3--3---------3---3--|


                                                                       
-------------------|--------|-------------------|---------------------|
-------------------|--0--0--|-------------------|---------------------|
--3----------------|--------|--1----------------|--3--3----------3----|
-------------------|--------|-------------------|---------------------|


                                                                        
-------------------|--------|-------------------|----------------------|
-------------------|--0--0--|-------------------|----------------------|
--4----------------|--------|--1----------------|----------------------|
-------------------|--------|-------------------|--3--3---------3---3--|


                                                                                
-------------------|-------------------|-------------------|-------------------|
-------------------|--0----------------|-------------------|-------------------|
--3----------------|-------------------|--1----------------|--3----------------|
-------------------|-------------------|-------------------|-------------------|


                                                                                
-------------------|-------------------|-------------------|-------------------|
-------------------|--0----------------|-------------------|-------------------|
--4----------------|-------------------|--1----------------|-------------------|
-------------------|-------------------|-------------------|--3----------------|


                                                                                
-------------------|-------------------|-------------------|-------------------|
-------------------|--0----------------|-------------------|-------------------|
--3----------------|-------------------|--1----------------|--3----------------|
-------------------|-------------------|-------------------|-------------------|


                                                                                
-------------------|-------------------|-------------------|-------------------|
-------------------|--0----------------|-------------------|-------------------|
--4----------------|-------------------|--1----------------|-------------------|
-------------------|-------------------|-------------------|--3----------------|


                                                                           
-------------------|---------------------------|--------------------------|
-------------------|--0----0---0-0-0-0-0-------|--------------------------|
--3----------------|------------------------1--|------1---1-1-1-1-1----3--|
-------------------|---------------------------|--------------------------|


                                                     
--------------------------|-------------------------|
--------------------------|-------------------------|
------3---3-3-3-3-3----4--|------4---4-4-4-4-4------|
--------------------------|-------------------------|


                                                       
---------------------------|--------------------------|
--0----0---0-0-0-0-0-------|--------------------------|
------------------------1--|------1---1-1-1-1-1-------|
---------------------------|-----------------------3--|


                                                      
--------------------------|--------------------------|
--------------------------|--------------------------|
-----------------------3--|------3---3-3-3-3-3----3--|
------3---3-3-3-3-3-------|--------------------------|


                                                       
---------------------------|--------------------------|
--0----0---0-0-0-0-0-------|--------------------------|
------------------------1--|------1---1-1-1-1-1----3--|
---------------------------|--------------------------|


                                                     
--------------------------|-------------------------|
--------------------------|-------------------------|
------3---3-3-3-3-3----4--|------4---4-4-4-4-4------|
--------------------------|-------------------------|


                                                       
---------------------------|--------------------------|
--0----0---0-0-0-0-0-------|--------------------------|
------------------------1--|------1---1-1-1-1-1-------|
---------------------------|-----------------------3--|


                                                                               
--------------------------|--------------------------|------------------------|
--------------------------|--------------------------|--0----0--0--0--0-------|
-----------------------3--|------3---3-3-3-3-3----3--|---------------------1--|
------3---3-3-3-3-3-------|--------------------------|------------------------|


                                                                        
-----------------------|-----------------------|-----------------------|
-----------------------|-----------------------|-----------------------|
------1--1--1--1----3--|------3--3--3--3----4--|------4--4--4--4----4--|
-----------------------|-----------------------|-----------------------|


                                                                           
------------------------|-----------------------|-------------------------|
--0----0--0--0--0-------|-----------------------|-------------------------|
---------------------1--|------1--1--1--1-------|---------------------10--|
------------------------|--------------------3--|------3--3--3--3--3------|


                                                                            
--------------------------|------------------------|-----------------------|
--------------------------|--0----0--0--0--0-------|-----------------------|
------10----10--10----10--|---------------------1--|------1--1--1--1----3--|
--------------------------|------------------------|-----------------------|


                                                                         
-----------------------|-----------------------|------------------------|
-----------------------|-----------------------|--0----0--0--0--0-------|
------3--3--3--3----4--|------4--4--4--4----4--|---------------------1--|
-----------------------|-----------------------|------------------------|


                                                                             
-----------------------|-------------------------|--------------------------|
-----------------------|-------------------------|--------------------------|
------1--1--1--1-------|---------------------10--|------10----10--10----10--|
--------------------3--|------3--3--3--3--3------|--------------------------|


                                                                  
-----------------------|--------------------|--------------------|
-----------------------|--------------------|--------------------|
-----------------------|-----------------3--|--3-----------------|
--7--7----5----7----3--|--3-----------------|-----------------3--|


                                                               
--------------------|--------------------|--------------------|
--------------------|--------------------|--------------------|
-----------------3--|--3-----------------|-----------------3--|
--3-----------------|-----------------3--|--3-----------------|


                                                                         
--------------------|-------------------------|-------------------------|
--------------------|-------------------------|-------------------------|
--3-----------------|-------------------------|-------------------------|
-----------------3--|--3--3--3--3--3--5----2--|----2--2--2--2--2--2--3--|


                                                               
--------------------|--------------------|--------------------|
--------------------|--------------------|--------------------|
-----------------3--|--3-----------------|-----------------3--|
--3-----------------|-----------------3--|--3-----------------|


                                                               
--------------------|--------------------|--------------------|
--------------------|--------------------|--------------------|
--3-----------------|-----------------3--|--3-----------------|
-----------------3--|--3-----------------|-----------------3--|


                                                                            
-------------------------|-------------------------|-----------------------|
-------------------------|-------------------------|-----------------------|
-------------------------|-------------------------|-----------------------|
--3--3--3--3--3--5----2--|----2--2--2--2--2--2--3--|----3--3--3--3--5------|


                                                                               
----|------------------------|-----------------------|------------------------|
----|------------------------|-----------------------|------------------------|
----|--0----0--0--0----0--0--|--0----0--0--0----0----|--0--0--0----0--0--0----|
----|------------------------|-----------------------|------------------------|


                                                                             
--------------------------|-------------------------|-----------------------|
--------------------------|-------------------------|-----------------------|
--5--5--3--5--7--5--3--2--|--3--3--0--3--5--5--0----|--0----0--0--0----0----|
--------------------------|-------------------------|-----------------------|


                                                                              
------------------------|--------------------------|-------------------------|
------------------------|--------------------------|-------------------------|
--0--0--0----0--0--0----|--5--5--3--5--7--5--3--2--|--3--3--0--3--5--5--0----|
------------------------|--------------------------|-------------------------|


                                                                            
-----------------------|------------------------|--------------------------|
-----------------------|------------------------|--------------------------|
--0----0--0--0----0----|--0--0--0----0--0--0----|--5--5--3--5--7--5--3--2--|
-----------------------|------------------------|--------------------------|


                                                                           
-------------------------|-----------------------|------------------------|
-------------------------|-----------------------|------------------------|
--3--3--0--3--5--5--0----|--0----0--0--0----0----|--0--0--0----0--0--0----|
-------------------------|-----------------------|------------------------|


                                                                   
--------------------------|-------------------|-------------------|
--------------------------|-------------------|-------------------|
--5--5--3--5--7--5--3--2--|-------------------|-------------------|
--------------------------|--7----------------|--7----------------|


                                                                                
-------------------|-------------------|-------------------|-------------------|
-------------------|-------------------|-------------------|-------------------|
-------------------|-------------------|-------------------|-------------------|
--5----------------|--5----------------|--7----------------|--7----------------|


                                                              
--------------------|--------------------|-------------------|
--------------------|--------------------|-------------------|
--------------------|--------------------|-------------------|
--10----------------|--12----------------|--7----------------|


                                                                                
-------------------|-------------------|-------------------|-------------------|
-------------------|-------------------|-------------------|-------------------|
-------------------|-------------------|-------------------|-------------------|
--7----------------|--5----------------|--5----------------|--7----------------|


                                                              
-------------------|--------------------|--------------------|
-------------------|--------------------|--------------------|
-------------------|--------------------|--------------------|
--7----------------|--10----------------|--12----------------|


                                                                     
----------------------|----------------------|----------------------|
----------------------|----------------------|----------------------|
----------------------|----------------------|----------------------|
--7------9------10----|----12------3----5----|--10------9------7----|


                                       
------------------|------------------||
------------------|------------------||
------------------|------------------||
------------------|------------------||
Comments