Shadows - Wonderful Land Chords & Tabs

 

Wonderful Land Chords & Tabs

Shadows Chords & Tabs

Version: 1 Type: Tab 0 ratings
1 star 2 stars 3 stars 4 stars 5 stars
comments

Wonderful Land Tab

this is my first tab. its more or less spot on. enjoy!

part 1
e[-15-13-12------------15-13-12------------
B[----------15-13-15------------15-13-15---
G[-----------------------------------------
D[-----------------------------------------
A[-----------------------------------------
E[-----------------------------------------

part 2
e[-----------------------------------------
B[-----------------------------------------
G[-----------------------------------------
D[-5-0-5-7777-4-0---7---7---7---9999-------
A[--------------------8---------------10-7--
E[-----------------------------------------

e[---------------------------
B[-----5-6666-5--------------
G[-5-7----------7-5/7-7-7-7--
D[---------------------------  end of part 2
A[---------------------------
E[---------------------------

e[-----------------5-5---------------------------------------
B[-5----------5----------8-----6--6--------------------------
G[--5----------5-------------7-------5-----------4---------4-
D[---5----------5----------------------6-5-----5---5-----5---
A[----7--------------------------------------7---------7-----
E[-----------------------------------------------------------


reapeat part 2 here


[ Tab from: http://www.guitartabs.cc/tabs/s/shadows/wonderful_land_tab.html ]
palm mute this bit
e[----8-7----5-7-5----------8-7----5-7-5------12-10-----------------------
B[--------8--------8-5----------8---------8----------10-13-15-13-12-10-8-8
G[--5------------------7-5------------------------------------------------
D[------------------------------------------------------------------------
A[------------------------------------------------------------------------
E[------------------------------------------------------------------------

e[--------------------
B[--------------------
G[-------4---------4--
D[-----5---5-----5----
A[---7---------7------
E[--------------------

reapeat part 2 here as well

then reapeat palm muted bit


e[-----7--------7--15-13-12------------15-13-12------------15-13-12------------15-13-12------------
B[---8---7----8--------------15-13-15------------15-13-15------------15-13-15------------15-13-15--
G[-9--------9--------------------------------------------------------------------------------------
D[-------------------------------------------------------------------------------------------------
A[-------------------------------------------------------------------------------------------------
E[-------------------------------------------------------------------------------------------------

e[---------15--19-
B[------15--------
G[----------------
D[---17-----------
A[----------------
E[----------------






Comments