Shadows - Walking In The Air Chords & Tabs

 

Walking In The Air Chords & Tabs

Shadows Chords & Tabs

Version: 1 Type: Tab 0 ratings
1 star 2 stars 3 stars 4 stars 5 stars
comments

Walking In The Air Tab

   
-------------------------------------------------------------------------------
			     Walking in the Air - The Shadows
This is from 'the Snowman' and it is on The Shadows album, Themes and Dreams, not 
songs to listen to but easy to play.
-------------------------------------------------------------------------------
Tabbed by: Jenny

Tuning: Normal
Intro
e|---------------------------------------------------------------------------|
B|---------------------------------------------------------------------------|
G|---2-7-7-5-5-2---2-7-7-5-5-2-----------------------------------------------|
D|--------------------------------3-5----------------------------------------|
A|---------------------------------------------------------------------------|
E|---------------------------------------------------------------------------|

e|---------------------------------------------------------------------------|
B|---------------------------------------------------------------------------|
G|---0--3-3-2-2-0------------------------------------------------------------|
D|------------------0--3-3-2-2-0---------------------------------------------|
A|---------------------------------------------------------------------------|
E|---------------------------------------------------------------------------|


Middle:
e|---------------------------------------------------------------------------|
B|---------------------------------------1h3p1-------------------------------|
G|---2-7-7-5-5-2---2-7-7-5-5-2-----------------------------------------------|
D|--------------------------------3-5----------------------------------------|
A|---------------------------------------------------------------------------|
E|---------------------------------------------------------------------------|
[ Tab from: http://www.guitartabs.cc/tabs/s/shadows/walking_in_the_air_tab.html ]
e|----------------------------------------------------------------------------|
B|----------------------------------------------------------------------------|
G|---0-3-3-2-2-0--------------------------------------------------------------|
D|------------------0-3-3-2-2-------------------------------------------------|
A|------------------------------5b--------------------------------------------|
E|----------------------------------------------------------------------------|

e|----------------------------------------------------------------------------|
B|----------------------------------------------------------------------------|
G|---5-3-5-3-2----2-0-2-0-----------------------------------------------------|
D|-------------------------3---3-2-3-2-0--------------------------------------|
A|------------------------------------------4---------------------------------|
E|----------------------------------------------------------------------------|

Play Intro again

e|---------------------------------------------------------------------------|
B|---------------------------------------------------------------------------|
G|---------------------4-5-7-4-7-0-----------------------------3-2-----------|
D|-----------4-6-7-------------------------------------3-5--2-------2--------|
A|---4-5-7---------------------------------6-3-5--7--------------------------|
E|---------------------------------------------------------------------------|

Then the Intro - again!

e|---------------------------------------------------------------------------|
B|---------------------------------------------------------------------------|
G|-------------5-3-5-3-2--2-0-2-0---------5-3-5-3-2--2-0-2-0-----------------|
D|-------0--------------------------3----------------------------3-----------|
A|---3-----------------------------------------------------------------------|
E|---------------------------------------------------------------------------|

e|---------------------------------------------------------------------------|
B|---------------------------------------------------------------------------|
G|---------------------------------------------------------------------------|
D|---3-2-3-2-0--0-----0------------------------------------------------------|
A|-----------------3------3-1------0-----------------------------------------|
E|-----------------------------3---------------------------------------------|

and that is as far as i got before i got bored, i shall finish it soon.and then post it, 
now, i am bored. goodnight.

| h  hammer-on
| p  pull-off
| b  bend
Comments