Shadows - Walk Dont Run Chords & Tabs

 

Walk Dont Run Chords & Tabs

Shadows Chords & Tabs

Version: 2 Type: Tab 0 ratings
1 star 2 stars 3 stars 4 stars 5 stars
comments

Walk Dont Run Tab

Tabbed by:Sofie Kent
Email:stifler123@hotmail.com

Tuning:
[ Tab from: http://www.guitartabs.cc/tabs/s/shadows/walk_dont_run_tab_ver_2.html ]
e|------------------------------------------------------|
B|------------------------------------------------------|
G|------------------------------------------------------|
D|-7-7-7-5-5-5-3-3-3---------7-7-7-5-5-5-3-3-3----------|
A|-7-7-7-5-5-5-3-3-3-2-2-2-2-7-7-7-5-5-5-3-3-3-2-2-2-2--|
E|-5-5-5-3-3-3-1-1-1-0-0-0-0-5-5-5-3-3-3-1-1-1-0-0-0-0--|
guitar 1 can repeat this through the song as guitar 2 plays
1.verse
e|------------------------------------------------------------------------|
B|---------------------1-0------------------------------------------------|
G|-----------------0-2----------------------------------------------------|
D|----------0-2-3---------------------------0-2-0---2-1-2--0-2-3-2-0h20---|
A|-0-0-2-3---------------------------0-2-3---------3-------------------3--|
E|--------------------------0-0-2-3---------------------------------------|
after this play below then repeat 1.verse.

e|---------------|
B|---------------|
G|---------------|
D|--0h20--0-2-2--|
A|-3----3--------|
E|---------------|when repeted 1.verse play below.

e|-----------------------0-1---8-8-8--8-8-8----|
B|------------------0-1-3------8-8-8-10-10-10--|
G|---------------0-2---------------------------|
D|--0h20---------------------------------------|
A|-3-----3--3--3-------------------------------|
E|---------------------------------------------|

e|-5--5-----4--4-------8--7-8---12--|                    umison bend
B|--6----6---5----5----10-9-10--15--|
G|---5----5---4----4----------------|
D|----------------------------------|
A|----------------------------------|
E|----------------------------------|Repeat song

Please remember to rate
Comments