Shadows - Walk Dont Run Chords & Tabs

 

Walk Dont Run Chords & Tabs

Shadows Chords & Tabs

Version: 1 Type: Tab 2 ratings
1 star 2 stars 3 stars 4 stars 5 stars
comments

Walk Dont Run Tab



Walk Dont run The shadows/The Ventures

This is the Guitar solo it should be right altho im not sue if its in the right order lol, any comments email me sharmame@hotmail.com


-----------------------------------------------------------
------------------------------------------------1-------0--
-------------------------2----------------0----2-----------
------------------------0---2---3--------------------------
---------------0---2---3-----------------------------------
-----------------------------------------------------------


----------------------------------------------------------
----------------------------------------------------------
------2----------------------0--2--0----------------------
---------------0-----2-----3---------3---2---1---2--2---------0----2---3--2---0--
------0---2---3-------------------------------------------
----------------------------------------------------------

[ Tab from: http://www.guitartabs.cc/tabs/s/shadows/walk_dont_run_tab.html ]
--------------------------------------------------------
---------------------------------------1-------0--------
------------2---------------0-----------------2---------
------0---0---2-------------0----2----3----------------
-------3------3----------------------0----2----3-------
--------------------------------------------------------

-------------------------------------------------------
--------------------------------------------------------
---2---------------------0--2--0------------------------
------0---2---3-----3----2---1---2--2----0---2---3---2---0-
----0----2---3--------------------------------------------
--------------------------------------------------------

--------------------------------------------------------
--------------------------------------------------------
-------------------0----0----0----0----0---0---0--2--2--
---0----0-----0---2--3----------------------------------
---3---3---3----0--2--3--------------------------------
-----------3--------------------------------------------

-------------------------------------------------0-------
--------------------------0-----0----------------1-------
--------2--------2------2----2---2---2---2---------------
----------------------------------------------------------
--------------------------------------------------------
Comments