Shadows - The Rise And Fall Of Flingel Bunt Chords & Tabs

 

The Rise And Fall Of Flingel Bunt Chords & Tabs

Shadows Chords & Tabs

Version: 1 Type: Bass Tab

The Rise And Fall Of Flingel Bunt Bass Tab

The Rise and Fall of Flingel Bunt  The Shadows
Bassline by Craig Dobson

     |Intro                                                                              
                                          |
G||----------------------------------------------------------------||
D||-----3-1---------------3-1------------3-1------5-5-5-5-3-1------||
A||3-3------3-3-------3-3-----3-3----3-3-----3-3--------------3-1-3||
E||----------------------------------------------------------------||

     | Verse
G||-----------------------------------------------------------3h5p35|
D||------5-5-3-3-1-1------------------5-4-3-3-3-3-3-3-3-------------|
A||-3-3---------------3-3-3-1-2-3-3-3------------------1-2-3-3-3-3-3|
E||-----------------------------------------------------------------|


G|------------------------------------------------------------------|
D|--------------------------------------------5-5-3-3-1-1-----------|
A|3-----------------1-2-3-3-3-1-2-3-3-3---3-3-------------3-3-3-1-2-|
E|--3-3-3-3-2-1-1-1-------------------------------------------------|


G|------------------------------3h5p35------------------------------|
D|------5-4-3-3-3-3-3-3-3-------------------------------------------|
A|3-3-3------------------1-2-3-3-3-3-3-3----------------1-2-3-3-3-1-|
E|---------------------------------------3-3-3-3-2-1-1-1------------|
[ Tab from: http://www.guitartabs.cc/tabs/s/shadows/the_rise_and_fall_of_flingel_bunt_btab.html ]
                     |                      Middle
G|--------|----------|-8h10-10-1010101010101010---------------101010|
D|--------|----------|--------------------------101010101010--------|
A|2-3-3-3-|----------|-8----8--8-8-8-8-8-8-8-8----------------8-8-8-|
E|--------|----------|--------------------------8-8-8-8-8-8---------|


G|10101010---------------------------------|-------|---|
D|-----------------------------------------|-------|---|
A|8-8-8-8/-10--10-10-10-10-10-8-6----------|-Verse-|---|
E|-----------------------------------------|--again|---|

      | Drum solo bit
G|-|----------------------------------------------------------------|
D|-|--------------------------------------------------3-3-3-3-3-3-3-|
A|-|-3-3-3-3-3-3-3-3-3-drums--3-3-3-3-3-3-3-3-3-drums---------------|
E|-|----------------------------------------------------------------|

                                                                    |
G|------------------------------------------------------------------|
D|-3-3-drums-------------------------5-5-5-5-3-1--------10--13-15-17|
A|-----------3-3-3-3-3-3-3-3-3-drums-------------3-1-3--------------|
E|------------------------------------------------------------------|

 |Retarded verse
G|-------121212-101010-8-8-8-------8h10-------------121212-101010---|
D|-101010--------------------10-10-----8h10---101010----------------|
A|------------------------------------------------------------------|
E|------------------------------------------------------------------|


G|-8-8-8-----8--10-11-12--151617------------------------------------|
D|-------10----------------------5-4-3-3-5-5-5-5-8-8-8-8-10-10-10-10|
A|------------------------------------------------------------------|
E|------------------------------------------------------------------|

Then outro(same as intro)
End on:

D|-5---8-9-10-------------