Shadows - Shindig Chords & Tabs

 

Shindig Chords & Tabs

Shadows Chords & Tabs

Version: 1 Type: Tab 0 ratings
1 star 2 stars 3 stars 4 stars 5 stars
comments

Shindig Tab

Shadows/Shindig
I spent ages working this out so it should be 100% correct. Have fun!

Intro
|--4-5--4-5--4-5--|
|--4-5--4-5--4-5--|
|--5-6--5-6--5-6--|
|--6-7--6-7--6-7--|
|--6-7--6-7--6-7--|
|--4-5--4-5--4-5--|


Verse Play twice
|-----------------------------------------------------------------------|
|----------5---5------------------5---5----------5---5------------------|
|------2-4-4h6-6-4-2----------2-4-4h6-6------2-4-4h6-6-4-2----2-4-5-4-2-|
|--2-4---------------4--2-2-4------------2-4---------------4------------|
|-----------------------------------------------------------------------|
|-----------------------------------------------------------------------|

|------------------------------|
|----2---2---------------2---2-|
|----1h2-2---2-4-5-4-2---1h2-2-|
|--4-------------------4-------|
|------------------------------|
|------------------------------|

Bridge
|-----------------------------------------------------------|
|-----------------------------------------------------------|
|-----------------------------------------------------------|
|-----------------------------------------------------------|
|--x2-x4-x4-x4-x2-x4-x2-x4-x4-x4-x2-x4-x2-x4-x4-x4-x2-x4-x4-|
|--x0-x2-x2-x2-x0-x2-x0-x2-x2-x2-x0-x2-x0-x2-x2-x2-x0-x2-x2-|

Chorus
|-----------------------------------------------------------|
|-----------------------------------------------------------|
|-----------------------------------------------------------|
|---------4-2----------------------4-2------------4-2---2-4-|
|-------4-----4-2-----2-4--------4-----4----2-2-2-----------|
|--2--5-----------5-5-------2--5----------5-----------------|
[ Tab from: http://www.guitartabs.cc/tabs/s/shadows/shindig_tab.html ]
|-----------------------------------------------------------|
|-----------------------------------------------------------|
|--2-1\2-2------------2-1\2-2-------------2-1\2-2-----------|
|----------4-2-4--------------4-2-4---------------4-2-4-----|
|----------------0-0----------------0-0-----------------2-2-|
|-----------------------------------------------------------|

|------------------------------------------------------|
|------------------------------------------------------|
|------------------------------------------------------|
|------x9-x9--x7-----x6-x6--x4---x6-x6-x4-x2-x2-x2-x0--|
|--x11--------x9--x7--------x5---x7-x7-x5-x4-x4-x4-x2--|
|------------------------------------------------------|

Play verse again once
Then
Solo
|--5-5-5-5----5-5-5-5-10-9---5---5-5-5-5----5-5-5-5-10-9---|
|--5-5-5-5h7--6-6-6-6-12-10--5---5-5-5-5h7--6-6-6-6-12-10--|
|----------------------------------------------------------|
|----------------------------------------------------------|
|----------------------------------------------------------|
|----------------------------------------------------------|

|--5-5-5-5----5-7-9--10-12-10-9--10-12-14-12-10-9--\12-12-12|
|--5-5-5-5h7--7-9-10-12-14-12-10-12-14-15-14-12-10-\12-12-12|
|--------------------------------------------------\13-13-13|
|-----------------------------------------------------------|
|-----------------------------------------------------------|
|-----------------------------------------------------------|

|-12-12-12------------\12-12-12-12-12-12------------|
|-12-12-12------------\12-12-12-12-12-12------------|
|-13-13-13------------\13-13-13-13-13-13------------|
|---------------------------------------------------|
|---------------------------------------------------|
|-----------x0-x0--x0---------------------x0-x0--x0-|
Play verse twice and then the intro
Have fun! Any question send to tombilly76@hotmail.com
Thanks!
Comments