Shadows - Shadoogie Chords & Tabs

 

Shadows Chords & Tabs

Version: 1 Type: Tab 0 ratings
1 star 2 stars 3 stars 4 stars 5 stars
comments

Shadoogie Tab

   
-------------------------------------------------------------------------------
			     SONG NAME - Band Name
-------------------------------------------------------------------------------          
               shadoogie    the shadows
Tabbed by:kim andre sandov
Email:kimelimm@skate.com

Tuning: normal e,a,d,g,e
      x2
e|--------------------|----------------------|---------------------|
B|--------------------|----------------------|---------------------|
G|--------------------|-----------2----------|---------------------|
D|----------2---------|-------2-4---4-2------|---------2-----------|
A|------2-4---4-2-----|---0-4-----------4----|-----2-4----4-2------|
E|--0-4-----------4---|----------------------|-0-4------------4----|


e|--------------------------------------------------------------------------|
B|--------------------------------------------------------------------------|
G|------4-2-2-------------6-5-2---------------------------------------------|
D|------------4-------------------------2-----------------------------------|
A|---2--------------0---------------2-4---4-2-------------------------------|
E|------------------------------0-4-----------4-----------------------------|
      x4                   x2
e|-----------------|-----------------|----------------|---------------------|
B|-----------------|-----------------|----------------|---------------------|
G|-----------------|-----------------|----------------|---------------------|
D|-----------------|-----------------|----------------|---------------------|
A|-----------------|--0--3/---0--4/--|----------------|-3-3-3--0-0-00-------|
E|---0--3/---0-4/--|-----------------|-0--3/---0--4/--|---------------000---|
[ Tab from: http://www.guitartabs.cc/tabs/s/shadows/shadoogie_tab.html ]
e|-------9-12-9--------------9-12---9-12-12-9-------------------------------|
B|----12--------12-10-9-9-12------------------12-10-8~----------------------|
G|--------------------------------------------------------------------------|
D|--------------------------------------------------------------------------|
A|--------------------------------------------------------------------------|
E|--------------------------------------------------------------------------|
      x4                                                        x6
e|---0-12-10-----------|0-------------------------|-0-12-10-----------------|
B|-----------12-10-----|--12-11-10-9--------------|---------12-10-----------|
G|-----------------12--|----------12-11-10-9------|---------------12-9------|
D|---------------------|--------------------------|--------------------12-9-|
A|---------------------|--------------------------|-------------------------|
E|---------------------|----------------------0-0-|-------------------------|
                         x4
e|------------------|----------------------|--------------------|-----------|
B|------------------|----------------------|--------------------|-----------|
G|------------------|----------------------|--------------------|-----------|
D|------------------|----------------------|--------------------|-----------|
A|---2-2-2--2-2-2222|----------------------|------0x-3x/-0x-4x/-|-----------|
E|------------------|--0x-3x/-0x-4x-0x-3x/-|--------------------|-----------|

e|----------------------|---------------------------------------------------|
B|----------------------|---------------------------------------------------|
G|----------------------|---------------------------------------------------|
D|----------------------|--2------------------------------------------------|
A|----------------------|----4-2--------------------------------------------|
E|--0x-3x/-0x-4x-0x-3x/-|--------5-4-2-0------------------------------------|

| /  slide up
|   slide down
| h  hammer-on
| p  pull-off
| ~  vibrato
| +  harmonic
| x  Mute note
===============================================================================----------
Comments