Shadows - Kon Tiki Chords & Tabs

 

Kon Tiki Chords & Tabs

Shadows Chords & Tabs

Version: 1 Type: Tab 0 ratings
1 star 2 stars 3 stars 4 stars 5 stars
comments

Kon Tiki Tab

   
Kon Tiki\The Shadows
Tabbed by: Boyofmystery
Email: tombilly76@hotmail.com
Played by the great Hank Marvin
Have fun!
[ Tab from: http://www.guitartabs.cc/tabs/s/shadows/kon_tiki_tab.html ]
Verse 1
E|---------------------------------------------------------------------|
B|----------2----3-3-3--2---------------2------------------------------|
G|----2--4----2-----------2--1---1--2-4----------1-4--2---------1-4-2--|
D|--2--------------------------4-----------2-1-0--------2--2-1-0-------|
A|---------------------------------------------------------------------|
E|---------------------------------------------------------------------|
Verse 2
E|---------------------------------------------------------------------|
B|---------------2----3-3-3--2----------------2--------------2---------|
G|------2-2-4------2-----------2--1---1--2-4----------1--2-4---2-------|
D|--2-2-----------------------------4-----------2-1-0------------2-1-0-|
A|---------------------------------------------------------------------|
E|---------------------------------------------------------------------|
           Bridge Play x2      Chorus
E|---------||--10--7--9---5---||---0-0--0---0--0--0----2--5--13\14--12--9-|
B|---------||--10--9--10--5--5||---5\10-12--12\14-10---3--7--14\15--14--10|
G|--1-4-2--||--11--9--9---6--4||------------------------------------------|
D|---------||--12---------7--6||------------------------------------------|
A|---------||-----------------||------------------------------------------|
E|---------||-----------------||------------------------------------------|

E|--10--12-12-10--9---10--12-12-10--9---7--9---10--9---7--9---7--5--4--5--6--|
B|--12--15-15-12--10--12--14--12--10--9--10--12--10--9--10--9--5--5--7--8----|
G|---------------------------------------------------------------------------|
D|---------------------------------------------------------------------------|
A|---------------------------------------------------------------------------|
E|---------------------------------------------------------------------------|
                    Then play Bridge and verse 1 again.
E|-----9--9-----9--|
B|--9--10---10--10-|
G|-----9--------9--|
D|-----------------|
A|-----------------|
E|-----------------|
 Outro                                E7 E7 E7 E7   A
E|------------------------------------------------------|
B|------------------------------------3-3-3-3-3-3-3--2--|
G|--------------------1---1---1---1---1-1-1-1-1-1-1--2--|
D|----2---2---2---2-------------------2-2-2-2-2-2-2--2--|
A|------------------------------------2-2-2-2-2-2-2--0--|
E|--0---0---0---0---0---0---0---0---0-------------------|
Comments