Shadows - Guitar Tango Chords & Tabs

 

Guitar Tango Chords & Tabs

Shadows Chords & Tabs

Version: 1 Type: Tab 0 ratings
1 star 2 stars 3 stars 4 stars 5 stars
comments

Guitar Tango Tab

Guitar Tango\The Shadows
Played by the great Hank Marvin (i cant do the timing right in the tab)
I spent ages working this out so it should be 99.9999%-100% correct
Have fun!

Intro
E|--2--3--5--2--3--5--2--3--5--2--|
B|--2--3--5--2--3--5--2--3--5--2--|
G|--3--4--6--3--4--6--3--4--6--3--|
D|--4--5--7--4--5--7--4--5--7--4--|
A|--4--5--7--4--5--7--4--5--7--4--|
E|--2--3--5--2--3--5--2--3--5--2--|
[ Tab from: http://www.guitartabs.cc/tabs/s/shadows/guitar_tango_tab.html ]
Verse 1 Play x2
E|-----------2--------------------2--------------------------------|
B|--3-3-3--3-----5-5-3---3-3-3--3-----5-3-2----2-2-2--2-5--3-2-----|
G|-------------------------------------------------------------4---|
D|-----------------------------------------------------------------|
A|-----------------------------------------------------------------|
E|-----------------------------------------------------------------|
                         Bridge Play x2
E|-----------------------||-----------------------------------------|
B|-----------------------||-----------2\3--5--3--3p2----------------|
G|--4-4-4--4-4-4---2-----||-----3---4-----------------2-2h4---------|
D|-------------------5-4-||--4----4--------------------------4\5-4--|
A|-----------------------||-----------------------------------------|
E|-----------------------||-----------------------------------------|
Chorus 1
E|------------------------------------------------------------------|
B|--3\5-3--2---2---2\3-2------------------------------2-2----2h3h5--|
G|-----------4------------4-2-4---4\6-4--2------1-3-4------4--------|
D|-----------------------------------------5-4----------------------|
A|------------------------------------------------------------------|
E|------------------------------------------------------------------|
                       Chorus 2  
E|-------------------||---------------------------------------------|
B|--3p2-3p2----------||--3\5-3--2---2---2\3-2-----------------------|
G|----------4-2------||-----------4------------4-2-4---4\6-4-2------|
D|--------------5-4--||----------------------------------------5-4--|
A|-------------------||---------------------------------------------|
E|-------------------||---------------------------------------------|
                     Play verse once:  Play bridge x2
E|-----------------||----------------||----------------|
B|-----------------||----------------||----------------|
G|----------2------||----------------||----------------|
D|--4-4-4-5---5-4--||----------------||----------------|
A|-----------------||----------------||----------------|
E|-----------------||----------------||----------------|
Chorus 3
E|--------------------------------------------------------------------|
B|--3\5-3--2---2--2h3p2---2---2\3-2------------------------7---10--8-8|
G|-----------4----------4------------4-2-4-----------6-7-9------------|
D|-------------------------------------------5--7--9------------------|
A|--------------------------------------------------------------------|
E|--------------------------------------------------------------------|
         Middle section   
E|------||-----------2---3-2---------5---7-9-10-12-14-12--10-9-10p9p7-|
B|--7---||-----2-3-5---5-----5-3-2-5----------------------------------|
G|------||--4---------------------------------------------------------|
D|------||------------------------------------------------------------|
A|------||------------------------------------------------------------|
E|------||------------------------------------------------------------|
                                                     Play verse x2
E|--5--3p2p0-----------------------------------------||---------------|
B|-----------3p2p0-4\5-3-2-0-2--2-3p2p0--------------||---------------|
G|--------------------------------------3p2p0--------||---------------|
D|---------------------------------------------5-4---||---------------|
A|---------------------------------------------------||---------------|
E|---------------------------------------------------||---------------|
Outro (play intro again)
E|----------------|
B|----------------|
G|----------------|
D|----------------|
A|----------------|
E|----------------|

p = pull off
h = hammer on
\ = slide down
/ = slide up
x = plam mute
Comments