Shadows - Fbi Chords & Tabs

 

Fbi Chords & Tabs

Shadows Chords & Tabs

Version: 1 Type: Tab 0 ratings
1 star 2 stars 3 stars 4 stars 5 stars
comments

Fbi Tab

Shadows - FBI                                       


Lead Guitar
                                                            
E||------------------|----12------12---12--12---12-----12--|
B||------------------|-------------------------------------|
G||------------------|-------------------------------------|
D||------------------|-------------------------------------|
A||------------------|-------------------------------------|
E||------------------|-------------------------------------|


                                                                          
----------------------|-------------------------|------------------------|
-------------------1--|--3---------------3----1-|--------------------1---|
--------------2-------|---------------2---------|--2------------2--------|
----------------------|-------------------------|------------------------|
----------------------|-------------------------|------------------------|
----------------------|-------------------------|------------------------|


                                                                                
-------------------------|-------------------------|--3-------0----------------|
--3---------------3---1--|----------------------1--|------------3------1-----3-|
---------------2---------|--2--------------2-------|---------------------------|
-------------------------|-------------------------|---------------------------|
-------------------------|-------------------------|---------------------------|
-------------------------|-------------------------|---------------------------|


                                                           
--0----0--------------------|------0------------0---------|
----------3---1---------1---|--3-----3---1--3------3---1--|
----------------2-----------|-----------------------------|
----------------------------|-----------------------------|
----------------------------|-----------------------------|
----------------------------|-----------------------------|


                                                         
------0------------0----------|-------------------------|
--3------3---1--3----3--1-----|-------------------------|
----------------------------2-|---------------------1---|
------------------------------|-------------2--4--------|
------------------------------|-------------------------|
------------------------------|-------------------------|


                                                                            
-------------------------|----------------------|--------------------------|
---------------------1-3-|---------------3---1--|----------------------1---|
--2--------------2-------|-------------2--------|--2--------------2--------|
-------------------------|----------------------|--------------------------|
-------------------------|----------------------|--------------------------|
-------------------------|----------------------|--------------------------|


                                                                           
-------------------------|-----------------------3-|----------------------|
--3---------------3---1--|---------------------1---|---------5-3--------3-|
---------------2---------|--2--------------2-------|----------------5-----|
-------------------------|-------------------------|----------------------|
-------------------------|-------------------------|----------------------|
-------------------------|-------------------------|----------------------|


                                                         
---------------------------|------0------------0--------|
-----3-3----1-----------1--|--3------3---1-3-----3---1--|
----------------2----------|----------------------------|
---------------------------|----------------------------|
---------------------------|----------------------------|
---------------------------|----------------------------|


                                                                             
------0------------0----------|------------------------|--------------------|
--3------3---1--3----3--1-----|------------------------|--------------------|
----------------------------2-|--------------------1-2-|--------------------|
------------------------------|-------------2--4-------|--------------------|
------------------------------|------------------------|--------------------|
------------------------------|------------------------|--------------------|


                                                                            
------------------|------------------|------------------|------------------|
------------------|------------------|------------------|------------------|
------------------|------------------|------------------|------------------|
------------------|------------------|------------------|------------------|
------------------|------------------|------------------|------------------|
------------------|------------------|------------------|------------------|


                                                                            
------------------|------------------|------------------|------------------|
------------------|------------------|------------------|------------------|
------------------|------------------|------------------|------------------|
------------------|------------------|------------------|------------------|
------------------|------------------|------------------|------------------|
------------------|------------------|------------------|------------------|


                                                                                
------------------|------------------|------------------|----------------------|
------------------|------------------|------------------|----------------------|
------------------|------------------|------------------|----------------------|
------------------|------------------|------------------|--------------------2-|
------------------|------------------|------------------|--------------0---3---|
------------------|------------------|------------------|----------------------|


                                                                             
------------------------|-------------------------|-------------------------|
------------------------|-------------------------|-------------------------|
------------------------|-------------------------|-------------------------|
-----------------0------|-------------------------|--2--------------0-------|
--------------0--3---3--|--0--------------0---3---|---------------0------3--|
------------------------|-------------------------|-------------------------|


                                                        
-------------------------|-----------------------------|
-------------------------|-----------------------------|
-------------------------|--2----0---------------------|
-------------------------|-----------2--0-----------0--|
--0--------------0----3--|---------------------3-------|
-------------------------|-----------------------------|


                                                             
-----------------------------|------------------------------|
-----------------------------|------------------------------|
-----------------------------|------------------------------|
--2----0---------------------|--0---2--0------0---2--0------|
-----------3---0------0---3--|-------------3-------------3--|
-----------------------------|------------------------------|

[ Tab from: http://www.guitartabs.cc/tabs/s/shadows/fbi_tab.html ]
                                                        
------------------------------|------------------------|
------------------------------|------------------------|
------------------------------|------------------------|
--0---2--0-----0--2--0--------|------------------------|
------------3-----------3---0-|------------------------|
------------------------------|--------------0--2---4--|


                                                       
-------------------12---|--12----12------10---8-------|
------------------------|-----------------------------|
------------------------|-----------------------------|
------------------------|-----------------------------|
--0---------------------|-----------------------------|
------------------------|-----------------------------|


                                                                     
--10----10---------8-10---8-------|--10----10---------8-10----8-----|
---------------10-----------------|---------------10----------------|
----------------------------------|---------------------------------|
----------------------------------|---------------------------------|
----------------------------------|---------------------------------|
----------------------------------|---------------------------------|


                                                                       
--10----10---10---10--10---10--10-----10--|--10-----10----8-----------|
------------------------------------------|-----------------10--------|
------------------------------------------|---------------------------|
------------------------------------------|---------------------------|
------------------------------------------|---------------------------|
------------------------------------------|---------------------------|


                                                                            
----------8--5-----5------10----12---|--12-------12---12----12---12---12---|
--8-10---------8---------------------|-------------------------------------|
-------------------------------------|-------------------------------------|
-------------------------------------|-------------------------------------|
-------------------------------------|-------------------------------------|
-------------------------------------|-------------------------------------|


                                               
--12----12---12----12---12----12---12----12---|
----------------------------------------------|
----------------------------------------------|
----------------------------------------------|
----------------------------------------------|
----------------------------------------------|


                                                                              
--12----12--10---8----------------|-----------------------|------------------|
-------------------10--------10---|--10-----8-------------|------------------|
----------------------------------|-----------------------|------------------|
----------------------------------|-----------------------|------------------|
----------------------------------|-----------------------|------------------|
----------------------------------|-----------------------|------------------|


                                                                            
------------------|------------------|------------------|------------------|
------------------|------------------|------------------|------------------|
------------------|------------------|------------------|------------------|
------------------|------------------|------------------|------------------|
------------------|------------------|------------------|------------------|
------------------|------------------|------------------|------------------|


                                                                            
------------------|------------------|------------------|------------------|
------------------|------------------|------------------|------------------|
------------------|------------------|------------------|------------------|
------------------|------------------|------------------|------------------|
------------------|------------------|------------------|------------------|
------------------|------------------|------------------|------------------|


                                                             
------------------|------------------|----------------------|
------------------|------------------|----------------------|
------------------|------------------|----------------------|
------------------|------------------|----------------------|
------------------|------------------|-------------------3--|
------------------|------------------|--------------5-------|


                                                                              
-------------------------|-------------------------|-------------------------|
-------------------------|-------------------------|-------------------------|
-------------------------|-------------------------|-------------------------|
--2---------------0------|-------------------------|--2---------------0------|
---------------0------3--|--0--------------0---3---|---------------0------3--|
-------------------------|-------------------------|-------------------------|


                                                       
------------------------|-----------------------------|
------------------------|-----------------------------|
------------------------|--2----0---------------------|
------------------------|------------2--0----------0--|
--0-------------0----3--|----------------------3------|
------------------------|-----------------------------|


                                                              
------------------------------|------------------------------|
------------------------------|------------------------------|
------------------------------|------------------------------|
--2----2--0-------------------|--0----2-0------0---2--0------|
--------------3---0--------3--|-------------3-------------3--|
------------------------------|------------------------------|


                                                                               
------------------------------|------------------------|----------------------|
------------------------------|------------------------|----------------------|
------------------------------|------------------------|----------------------|
--0---2--0------0--2-0--------|------------------------|----------------------|
-------------3----------3---0-|------------------------|--0-------------------|
------------------------------|-------------0--2---4---|-----------------0----|


                                                                     
---------------------|----------------------|-----------------------|
---------------------|----------------------|-----------------------|
---------------------|----------------------|-----------------------|
-----------2---------|-----------2----------|------------2----------|
--0------------------|--0-------------------|-----0-----------------|
---------------------|----------------------|-----------------------|


                                                             
--------------------|-------------------|------------------||
--------------------|-------------------|------------------||
--------------------|-------------------|------------------||
-------------2------|-------------------|------------------||
--0-----------------|-------------------|------------------||
--------------------|-------------------|------------------||
==
Comments