Shadows - Deer Hunter Chords & Tabs

 

Deer Hunter Chords & Tabs

Shadows Chords & Tabs

Version: 1 Type: Tab 1 rating
1 star 2 stars 3 stars 4 stars 5 stars
comments

Deer Hunter Tab

It wasn't very easy but here's the hole song.Try to Slide as many as you can 

Good Luck!!

The Shadows - Deer Hunter

E---------------------------------------------------------------------------------------------------7--12--12--11--9--9--11--9--7--5--7--2--4
B---------------------------------------------------------------------------------------------5--9--------------------------------------------------
G----4--4--2--4--6--2--4--6--4--2--4--2--1--1--1---------------------------------------------------------------------------------------------
D------------------------------------------------------4--2--4--4--2--2--2--4--1--2-------------------------------------------------------------
E----------------------------------------------------------------------------------------------------------------------------------------------------
A----------------------------------------------------------------------------------------------------------------------------------------------------
[ Tab from: http://www.guitartabs.cc/tabs/s/shadows/deer_hunter_tab.html ]
E---------------------------------------------------------7--7--5--7--9--5--7--9--7--5--7--5--4--4--4--2------2--2----------------------
B--5--7--9--9--7--5--7--7--5--5--5--5--7--4--5-------------------------------------------------------------5--------5--5--5--7--4--5--
G------------------------------------------------------------------------------------------------------------------------------------------------
D------------------------------------------------------------------------------------------------------------------------------------------------
E------------------------------------------------------------------------------------------------------------------------------------------------
A------------------------------------------------------------------------------------------------------------------------------------------------

E----------7--12--12--11--9--11--11--9--7--5--7--2--4--------------------------------------------------------
B--5--9--------------------------------------------------------5--7--9--10--11--7--12--12--12--17--16--19--
G---------------------------------------------------------------------------------------------------------------------
D---------------------------------------------------------------------------------------------------------------------
E---------------------------------------------------------------------------------------------------------------------
A---------------------------------------------------------------------------------------------------------------------

E--19--19--19--17--19--21--17--19--21--19--17--19--17--16--16--16--14--12--14--14--12--12--12--14--11-12
B---------------------------------------------------------------------------------------------------------------------------------
G---------------------------------------------------------------------------------------------------------------------------------
D---------------------------------------------------------------------------------------------------------------------------------
E---------------------------------------------------------------------------------------------------------------------------------
A---------------------------------------------------------------------------------------------------------------------------------

E----------7--12--------------------------------
B--5--9-----------3--5--5--7--9--7--5--5----
G------------------------------------------------
D------------------------------------------------
E------------------------------------------------
A------------------------------------------------
Comments