Shadows - Concerto De Aranjuez Chords & Tabs

 

Concerto De Aranjuez Chords & Tabs

Shadows Chords & Tabs

Version: 1 Type: Tab 0 ratings
1 star 2 stars 3 stars 4 stars 5 stars
comments

Concerto De Aranjuez Tab

   
#----------------------------------PLEASE NOTE---------------------------------#
#This file is the author's own work and represents their interpretation of the #
#song. You may only use this file for private study, scholarship, or research. #
#------------------------------------------------------------------------------##

                              CONCIERTO DE ARANJUEZ


Gtr I (E A D G B E) - 'Acoustic Guitar (steel)'
Gtr II (E A D G B E) - 'Acoustic Guitar (nylon)'
Gtr III (E A D G B E) - 'Electric Guitar (jazz)'

  Q=76
 4/4                        2/4
  Gtr I
  W          W               H             H
|----------|---------------|-7-----------|-7-----------|
|----------|---------------|-7-----------|-7-----------|
|----------|---------------|-7-----------|-7-----------|
|----------|---------------|-9-----------|-9-----------|
|----------|---------------|-------------|-------------|
|----------|---------------|-------------|-------------|
|
| Gtr II
| W          H    Q  E S S   Q..   S       Q..   S
|----------|---------------|-2-----------|-2-----------|
|----------|---------------|-3-----------|-3-----------|
|----------|---------------|-4-----------|-4-----------|
|----------|-------------4-|-------4-----|-------4-----|
|----------|---------------|-------------|-------------|
|----------|---------------|-------------|-------------|
|
| Gtr III
| W          W               W             W
|----------|---------------|-------------|-------------|
|----------|---------------|-------------|-------------|
|----------|---------------|-------------|-------------|
|----------|---------------|-------------|-------------|
|----------|---------------|-------------|-------------|
|----------|---------------|-------------|-------------|


  H             H             H
|-7-----------|-7-----------|-7--------------|
|-7-----------|-7-----------|-7--------------|
|-7-----------|-7-----------|-7--------------|
|-9-----------|-9-----------|-9--------------|
|-------------|-------------|----------------|
|-------------|-------------|----------------|
|
| Q..   S       Q..   S       Q..        S
|-2-----------|-2-----------|-2--------------|
|-3-----------|-3-----------|-3--------------|
|-4-----------|-4-----------|-4--------------|
|-------4-----|-------4-----|------------4---|
|-------------|-------------|----------------|
|-------------|-------------|----------------|
|
| W             W             S   E. +Q
|-------------|-------------|----------------|
|-------------|-------------|----------------|
|-------------|-------------|----------------|
|-------------|-------------|-4---4--(4)-----|
|-------------|-------------|-----7--(7)-----|
|-------------|-------------|----------------|


  H         H                H               H
|-7-------|-7--------------|-5-------------|-7------------|
|-7-------|-7--------------|-5-------------|-7------------|
|-7-------|-7--------------|-6-------------|-7------------|
|-9-------|-9--------------|-7-------------|-9------------|
|---------|----------------|---------------|--------------|
|---------|----------------|---------------|--------------|
|
| Q..   S   Q..          S   Q..         S   Q..        S
|-2-------|-2--------------|-0-------------|-2------------|
|-3-------|-3--------------|-2-------------|-3------------|
|-4-------|-4--------------|-2-------------|-4------------|
|-------4-|--------------2-|-------------4-|------------4-|
|---------|----------------|---------------|--------------|
|---------|----------------|---------------|--------------|
|
| W         E   E +S  E.     E.  S +E  S S   S   E. +Q
|---------|----------------|---------------|--------------|
|---------|----------------|---------------|--------------|
|---------|----------------|---------------|--------------|
|---------|-----4-(4)-5----|-7---9-(9)-7-5-|-4---4--(4)---|
|---------|----------------|---------------|-----7--(7)---|
|---------|----------------|---------------|--------------|


  H             H                 H              H
|-7-----------|-7---------------|-7-----------|--7--------------|
|-7-----------|-7---------------|-7-----------|--8--------------|
|-7-----------|-7---------------|-7-----------|--9--------------|
|-9-----------|-9---------------|-9-----------|--9--------------|
|-------------|-----------------|-------------|-----------------|
|-------------|-----------------|-------------|-----------------|
|
| Q..   S       Q..           S   Q..       S    Q..          S
|-2-----------|-2---------------|-2-----------|--3--------------|
|-3-----------|-3---------------|-3-----------|--5--------------|
|-4-----------|-4---------------|-4---------0-|--4--------------|
|-------4-----|---------------4-|-------------|---------------5-|
|-------------|-----------------|-------------|-----------------|
|-------------|-----------------|-------------|-----------------|
|
| W             E   S S +S  E S   Q    E  E      Q     S  S S S
|-------------|-----------------|-------------|-----------------|
|-------------|-----------------|-------------|-----------------|
|-------------|-----------------|-------------|-----------------|
|-------------|-------4-(4)-5-7-|-9----9-11---|-----------------|
|-------------|-----------------|-------------|-12----10-10---9-|
|-------------|-----------------|-------------|-----------------|


  H                  H                   H
|-7---------------|--7----------------|--7---------------|
|-8---------------|--8----------------|--8---------------|
|-9---------------|--9----------------|--7---------------|
|-9---------------|--9----------------|--9---------------|
|-----------------|-------------------|------------------|
|-----------------|-------------------|------------------|
|
| Q..           S    Q..            S    Q..           S
|-3---------------|--3----------------|--3---------------|
|-5---------------|--5----------------|--3---------------|
|-4---------------|--4----------------|--4---------------|
|---------------5-|-----------------5-|----------------4-|
|-----------------|-------------------|------------------|
|-----------------|-------------------|------------------|
|
| E.  S +S  S S S   +E.  S +S   S E      E.   S  +E  S S
|-----------------|-------------------|------------------|
|-----------------|-------------------|------------------|
|-----------------|-------------------|------------------|
|-----------------|-------------------|------------------|
|-9---7-(7)-7-5-7-|-(7)--9-(9)--------|------------------|
|-----------------|------------10-9---|-10---12-(12)-9-7-|


   H          H         H                    H
|--7-------|--6-------|-6-----------------|--6--------------|
|--7-------|--7-------|-7-----------------|--7--------------|
|--6-------|--6-------|-6-----------------|--6--------------|
|--8-------|--8-------|-8-----------------|--8--------------|
|----------|----------|-------------------|-----------------|
|----------|----------|-------------------|-----------------|
|
|  Q..   S    Q..   S   S E.     +E.    S    H
|--7-------|----------|-------------------|-----------------|
|--7-------|-11-------|-5-7------(7)------|--7--------------|
|--9-------|-11-------|-6-----------------|--9--------------|
|-11-------|-14-------|-8-----------------|-11--------------|
|--------9-|--------9-|-----------------9-|-----------------|
|----------|----------|-------------------|-----------------|
|
|  H         +H         E    S S +S   E S    Q   +S  S  S S
|----------|----------|-------------------|-----------------|
|----------|----------|-------------------|-----------------|
|----------|----------|-------------------|-----------------|
|----------|----------|-------------------|-----------------|
|----------|----------|-------------------|-----------------|
|--9-------|-(9)------|--------9-(9)-10---|-12--(12)---10-9-|


  E  E E E     E E E E    E   E  E  E    E  E  Q
|------------|---------|--------------|------------|
|----7-------|-----7---|--------12----|------------|
|-6------7---|-7-------|-----11-------|-------16---|
|------9-----|---9-----|-11--------12-|-12----16---|
|------------|-------9-|--------------|----14------|
|------------|---------|-----------14-|------------|
|
| E  E E E     E E E E    E   E  E  E    E  E  E E
|------7-----|-----7---|---------7----|--------7---|
|----7---7---|-7-----7-|------7-------|--7-------7-|
|-7----------|---7-----|------------7-|-----7------|
|------------|---------|--9-----------|------------|
|------------|---------|--------------|------------|
|------------|---------|--------------|------------|
|
| Q.     S S   H         +H              W
|------------|---------|--------------|------------|
|------------|---------|--------------|------------|
|------------|---------|--------------|------------|
|------------|---------|--------------|------------|
|------------|---------|--------------|------------|
|-9------7---|-7-------|-(7)----------|------------|


   E     E  E  E       E  E   Q      E  E Q      Q    Q
|-------------------|-------------|-----2-----|--0------------|
|-------------------|---------3---|-------3---|--2----2-------|
|-------------------|---------4---|--4----4---|-------2-------|
|----------16-------|-------------|-----------|---------------|
|-------14----17----|----21-------|-----------|---------------|
|-14----------------|-19----------|-----------|---------------|
|
|  E     E  E  E       E  E   E E    E  E E E    E  E E  E
|-----------7-------|---------7---|-------7---|-------5-------|
|--------7----------|--7--------7-|-----7---7-|-----5---------|
|--------------7----|-------------|--7--------|--6-------6----|
|--9----------------|-----9-------|-----------|---------------|
|-------------------|-------------|-----------|---------------|
|-------------------|-------------|-----------|---------------|
|
|  S E.     E  S  S    E  S S Q     +Q    E E    Q.      S  S
|-------------------|-------------|-----------|---------------|
|--7-7---------7--8-|--7----5-7---|-(7)---7-8-|-10------12-10-|
|----9-----------11-|--9----------|-----------|---------------|
|-------------------|-------------|-----------|---------------|
|-------------------|-------------|-----------|---------------|
|-------------------|-------------|-----------|---------------|


  Q=77
  E   E  Q         E E   Q      Q    Q
|-----2----------|---2-------|--2-------------|
|-3------3-------|-------3---|--3----3--------|
|--------2-------|-4-----4---|-------4--------|
|----------------|-----------|----------------|
|----------------|-----------|----------------|
|----------------|-----------|----------------|
|
| E   E  E  E      E E   E E    E  E E   E
|----------------|-----------|-----------2----|
|-----------3----|---3-----3-|-------3--------|
|-----6--4-------|-4-----4---|-----4----------|
|-7--------------|-----------|--4-------------|
|----------------|-----------|----------------|
|----------------|-----------|----------------|
|
| S S E +E  S  S   E S S Q     +E  E S S S  S
|----------------|-----------|----------------|
|-8-7-7-(7)-7--8-|-7---5-7---|-(7)-7-7-8---10-|
|---9---------11-|-9---------|----------------|
|----------------|-----------|----------------|
|----------------|-----------|----------------|
|----------------|-----------|----------------|


   E E      Q           E  E     Q           E   E   Q
|----2---------------|---------------------|-----3------------|
|--3--------3--------|-----5---------------|---------5--------|
|-----------4--------|--4--------4---------|---------4--------|
|--------------------|-----------5---------|-2----------------|
|--------------------|---------------------|------------------|
|--------------------|---------------------|------------------|
|
|  E E      E      E    E  E     E     E     E   E   E   E
|-----------2--------|-----------------3---|-----3------------|
|----3---------------|--5--------5---------|-5-------5--------|
|--4---------------4-|-----4---------------|-------------4----|
|--------------------|---------------------|------------------|
|--------------------|---------------------|------------------|
|--------------------|---------------------|------------------|
|
|  E S  S  +S   S  E    E.    S  S  S  S S   S S S S S E   S
|--------------------|---------------------|------------------|
|-12---12-(12)-12-14-|---------------------|-------7-5-5---3--|
|--------------------|-14----12-12-11-11-9-|-9-7---9-7--------|
|--------------------|---------------------|------------------|
|--------------------|---------------------|------------------|
|--------------------|---------------------|------------------|


  Q    Q          E  E    Q         E    E  Q
|-3-------------|----3-----------|-------2---------|
|-0----5--------|---------5------|-----------------|
|------0--------|-4-------4------|--4-------6------|
|---------------|----------------|----------4------|
|---------------|----------------|-----------------|
|---------------|----------------|-----------------|
|
| E E  E    E     E  E    E  E      E    E  E  E
|---5--3----2---|----7-----------|-----------------|
|-5-------------|-5-------8------|-----------------|
|---------------|------------9---|------11--9------|
|---------------|----------------|-11----------9---|
|---------------|----------------|-----------------|
|---------------|----------------|-----------------|
|
| Q   +S  S S S   E.   S +E  S S    S S  E +E  S S
|---------------|----------------|-----------------|
|-5---(5)-7-----|------5-(5)-----|--2----2-(2)-2-3-|
|-----------7-6-|-7----------6-4-|----4----------6-|
|---------------|----------------|-----------------|
|---------------|----------------|-----------------|
|---------------|----------------|-----------------|


  E E   Q      E  E Q     E E  Q          E  E E E
|---2-------|-----------|---2-----------|----2------|
|-------5---|--7--2-5---|---------------|-----------|
|-3---------|--3--------|-3----6--------|-4----4----|
|-------4---|-------4---|------4--------|--------4--|
|-----------|-----------|---------------|-----------|
|-----------|-----------|---------------|-----------|
|
| E E   E E    E  E E E   E E  E    E     E  E E E
|-----------|-----6-----|---------------|------7----|
|-7-5-----5-|-------5---|-7-5-----------|----7---7--|
|-------6---|--6------6-|------6----7---|-----------|
|-----------|-----------|---------------|-9---------|
|-----------|-----------|---------------|-----------|
|-----------|-----------|---------------|-----------|
|
| E S S Q     +Q    E E   E E +S  E   S   Q.     E
|-----------|-----------|---------------|-----------|
|-2-----2---|-(2)---2-3-|-5-3-(3)-2-----|-2---------|
|-4---4-----|-----------|---------------|--------4--|
|-----------|-----------|---------------|-----------|
|-----------|-----------|---------------|-----------|
|-----------|-----------|---------------|-----------|


  E E E E    E  E  E    E   E   E   E   E       E     E   Q
|-----2---|-----2--7------|---------7--------|-----------------|
|-3-------|--2------------|---------7--------|-----------------|
|---4-----|-------------7-|-7-----------7----|--------7--------|
|-------4-|---------------|-----9------------|--9---------9----|
|---------|-------------9-|------------------|-----------10----|
|---------|---------------|------------------|-----------------|
|
| E E E E    E  E  E    E   E   E   E   E       E     E   E  E
|-----7---|--------7------|---------7--------|---------------7-|
|-7-----7-|-----7---------|-7-----------7----|--8--------------|
|---7-----|-------------7-|-----7------------|--------7--------|
|---------|--9------------|------------------|------------9----|
|---------|---------------|------------------|-----------------|
|---------|---------------|------------------|-----------------|
|
| H         +Q    +S  S E   S S S S S S S  S    S  E.    +Q
|---------|---------------|------------------|-----------------|
|---------|---------------|-----2-3-5-7-8-10-|-12-12----(12)---|
|-4-------|-(4)---(4)-----|---4--------------|----14----(14)---|
|---------|---------------|------------------|-----------------|
|---------|---------------|------------------|-----------------|
|---------|---------------|------------------|-----------------|


   E E  Q      Q    Q     E E E E    E  E  Q
|-----------|-----------|---------|---------------|
|-----------|-----------|---8-----|---------------|
|-----------|-12--------|-----7---|-----6---------|
|----9-12---|--9---12---|-9-----5-|--7-----7------|
|------10---|------10---|---------|--------9------|
|-10--------|-----------|---------|---------------|
|
|  E E  E E    E E  E E   E E E E    E  E  E  E
|-----------|-----------|---------|---------------|
|--8------8-|----8------|---8-----|-------10------|
|----7------|--7------7-|-----7---|----11---------|
|-------9---|-------9---|-9-----9-|-11-------11---|
|-----------|-----------|---------|---------------|
|-----------|-----------|---------|---------------|
|
|  W           W          W          W
|-----------|-----------|---------|---------------|
|-----------|-----------|---------|---------------|
|-----------|-----------|---------|---------------|
|-----------|-----------|---------|---------------|
|-----------|-----------|---------|---------------|
|-----------|-----------|---------|---------------|


   E  E  Q       Q         Q        E  E   E     E
|-------------|------------------|-------------------|
|-------------|------------------|-------------------|
|-------------|------------------|----11-------------|
|----11-------|-16--------11-----|-11-----11---------|
|--9----12----|-12--------12-----|--------------12---|
|-------14----|------------------|-------------------|
|
|  E  E  E  E    E  E      E   E    E  E   E     E
|-------------|------------------|-------------------|
|-------10----|-----------10-----|--------10---------|
|----11-------|-11---------------|----11-------------|
|----------11-|----11---------11-|--------------11---|
|-12----------|------------------|-12----------------|
|-------------|------------------|-------------------|
|
|  W             E  S  S  +Q        E  E  +S  S  S S
|-------------|------------------|-------------------|
|-------------|-------14-(14)----|-12-10-(10)-8-10---|
|-------------|------------------|-------------------|
|-------------|------------------|-------------------|
|-------------|------------------|-------------------|
|-------------|------------------|-------------------|


   E  E   Q            E   E  Q           Q       Q      E   E  Q
|-------------------|------------------|--------------|-----------------|
|-------------------|------------------|--------------|-----------------|
|-------------------|-----12-----------|--------------|-----12----------|
|----14-------------|--------14--------|-17------14---|--------14-------|
|-14-----14---------|--------14--------|-14-----------|-14-----14-------|
|--------15---------|-12---------------|---------15---|-----------------|
|
|  E  E   E     E      E   E  E    E      E  E    E E    E   E  E   E
|-------------------|------------------|--------------|--7--------------|
|---------------8---|------------------|--8-----------|------8------8---|
|--9------9---------|--9---7-------7---|-----7------7-|---------9-------|
|-----9-------------|---------9--------|----------9---|-----------------|
|-------------------|------------------|--------------|-----------------|
|-------------------|------------------|--------------|-----------------|
|
|  Q     +S  S  S S   +Q     +S  S S S    E.   S  Q     +E   E  S E   S
|-------------------|------------------|--------------|-----------------|
|-12----(12)---10-8-|-(8)----(8)-7-5-3-|--5----3--5---|-(5)--3--5-7---8-|
|-------------------|------------------|--------------|-----------------|
|-------------------|------------------|--------------|-----------------|
|-------------------|------------------|--------------|-----------------|
|-------------------|------------------|--------------|-----------------|


   E   E    Q           E   E  Q      E  E  Q        E   E  Q
|--------------------|-------------|-------------|-----------------|
|--------------------|-------------|-------------|-----------------|
|--------------------|-------------|-------------|-----------------|
|-----16-------------|-----16------|-16----------|------16---------|
|-14-------14--------|--------17---|----14-16----|--13--13-16------|
|----------14--------|-14-----19---|-19----14----|---------14------|
|
|  E   E    E    E      E   E  E E    E  E  E  E     E   E  E  E
|--------------------|-------------|-------------|-----------------|
|--------------------|--7----------|-------------|-----------------|
|------7---------7---|------7----7-|-------------|--11---9---------|
|--9--------9--------|---------9---|--9-11--9-11-|---------11------|
|--------------------|-------------|-------------|------------13---|
|--------------------|-------------|-------------|-----------------|
|
| +E.    S +S  S S S    Q.       E    E  E  Q       +Q      E  S S
|--------------------|-------------|-------------|-----------------|
|-(8)------------5---|--7----------|-------------|-----------------|
|--------9-(9)-7-----|-------------|-------------|-----------------|
|--------------------|-----------9-|-11-12-14----|-(14)----12-11---|
|--------------------|-------------|-------------|-----------------|
|--------------------|-------------|-------------|-----------------|


   E  E   E     E    E   E  E  E    E   E  E  E    E   E  E     E
|-----------------|--------------|------7-------|---------7---------|
|-----------------|--------------|---------7----|---------7---------|
|-----------------|-----11-------|--7-----------|--7------------7---|
|----16-----------|-12------9----|------------9-|------9------------|
|-14-----14-------|------------9-|------------9-|-------------------|
|--------------14-|--------------|--------------|-------------------|
|
|  E  E   E     E    E   E  E  E    E   E  E  E    E   E  E     E
|-----------------|--------------|--------------|-------------------|
|-----------------|--------------|--------------|-------------------|
|-----------------|--------------|--------------|-------------------|
|-14-16--------16-|--------------|--------21----|--------21---------|
|--------16-------|-17-----21----|-----21-------|-21----------------|
|-----------------|-----19----22-|-19--------22-|-----22-------22---|
|
|  Q     +S  S  E   +H             +H             +Q     +S  S  E
|-----------------|--------------|--------------|-------------------|
|-----------------|--------------|--------------|-------------------|
|-----------------|--------------|--------------|-------------------|
|-11----(11)----9-|-(9)----------|-(9)----------|-(9)----(9)--------|
|-----------------|--------------|--------------|-------------------|
|-----------------|--------------|--------------|-------------------|


   E      E   E   E    E  E  E  E    E  E  E       E
|-------------------|-------------|------------------|
|---------7---------|-------------|------------------|
|--6------6---------|----11-------|----11------------|
|--7----------7--11-|-11-11----11-|-11-11---------11-|
|-------------9---9-|-12----12----|-12----12---------|
|-------------------|-------14-14-|-------14------14-|
|
|  E      E   E   E    E  E  E  E    E  E  E       E
|-------------------|-------------|--------2---------|
|-------------------|-------------|------------------|
|-------------------|-------------|-----2----------2-|
|------------19-----|-------19----|------------------|
|-21----------------|-16-------21-|------------------|
|--------21------17-|----17-------|-21---------------|
|
|  S  E.     +Q        W             E  E +S   E.
|--9--9------(9)----|-------------|-----9-(9)-10-----|
|----12-----(12)----|-------------|------------------|
|-------------------|-------------|------------------|
|-------------------|-------------|------------------|
|-------------------|-------------|------------------|
|-------------------|-------------|------------------|

[ Tab from: http://www.guitartabs.cc/tabs/s/shadows/concerto_de_aranjuez_tab.html ]
   E  E   E      E      E    E  E   E    E   E  E  E    E  E  E     E
|--------------------|----------------|--------------|-------------------|
|--------------------|----------------|--------------|-------------------|
|-----9--------------|------11--------|-----11-------|----11-------------|
|--9--9--------------|-11---11-----11-|-11--11----11-|-11-11-------11----|
|-11-----11-----14---|-12------12-----|-12-----12----|-12----12----------|
|--------12-----12---|---------14--14-|--------14-14-|-------14----14----|
|
|  E  E   E      E      E    E  E   E    E   E  E  E    E  E  E     E
|--------------------|----------------|--------------|-------------------|
|-----5--------------|--------------7-|--------------|-------------------|
|--4------4----------|--6-------------|--6-----------|-------11----------|
|----------------6---|-------7--------|------7----11-|----11-------11----|
|--------------------|----------9-----|---------9----|-12----------------|
|--------------------|----------------|--------------|-------------------|
|
|  E  E  +S   S  S S    S S  E +Q       +Q      Q       Q     S  S  S  S
|-12-14-(14)-12-10-9-|----7--9-(9)----|-(9)----------|--------9-10----12-|
|--------------------|----------------|--------------|-------------------|
|--------------------|----------------|--------------|-------------------|
|--------------------|----------------|--------------|-------------------|
|--------------------|----------------|--------------|-------------------|
|--------------------|----------------|--------------|-------------------|


   E  E      E   E     E   E   E     E       E E   E     E
|------------------|----------------------|-------------------|
|------------------|----------------------|-------------------|
|----11------------|------11--------------|--7-7--11----------|
|-11-11---------11-|---9---9--12----12----|--9-----9----12----|
|-12--------12-----|---9-------9-----9----|--------9-----9----|
|-----------14--14-|----------------------|-------------------|
|
|  E  E      E   E     E   E   E     E       E E   E     E
|------------------|----------------------|----7--------------|
|-10---------------|----------------------|--------7----------|
|----11------------|--11-------------7----|--------------7----|
|-----------11-----|-----------9----------|--9----------------|
|---------------12-|-------9--------------|-------------------|
|------------------|----------------------|-------------------|
|
|  E  S  S  +Q        +E   E  +S  S  S  S    Q    +S  S  S  S
|-14----16-(16)----|-(16)-----------------|-------------------|
|------------------|------17-(17)---15-14-|-15---(15)---14-12-|
|------------------|----------------------|-------------16-14-|
|------------------|----------------------|-------------------|
|------------------|----------------------|-------------------|
|------------------|----------------------|-------------------|


   E  E   E     E     E   E   E     E    E E  E  E    E  E E E
|-----------------|-------------------|------------|-----------|
|-----------------|-------------------|------------|--6----6---|
|----11-----------|---7---7--11-------|-11------11-|--6--6-4-6-|
|--9--9--12----12-|---9-------9----12-|-11-9-11--9-|--9--6---6-|
|--9------9-----9-|-----------9-----9-|-11---11----|-----------|
|-----------------|-------------------|------------|-----------|
|
|  E  E   E     E     E   E   E     E    E E  E  E    E  E E E
|-----------------|-------------------|-------4----|-----------|
|---------------7-|-------------------|----------6-|-------7---|
|-----------------|---7-------------7-|--6---------|--4------7-|
|--9------7-------|-----------9-------|----6-------|-----6-----|
|-----9-----------|-------9-----------|------------|-----------|
|-----------------|-------------------|------------|-----------|
|
|  Q     +S  S  E    +E   E  +S  S  E    H           +Q    Q
|-----------------|-------------------|------------|-----------|
|-12----(12)---12-|-(12)--------------|--9---------|-(9)-------|
|-----------------|------13-(13)---11-|------------|-----------|
|-----------------|-------------------|------------|-----------|
|-----------------|-------------------|------------|-----------|
|-----------------|-------------------|------------|-----------|


  E E  E      E    E E   E     E      E  E E  E    E  E  E  E
|---------------|------------------|------------|-------------|
|-6----6--------|--6-----6---------|-----7------|-------------|
|-6-6--4------6-|--6-6---4-----6---|--6--6------|----11-------|
|-9-6---------6-|--9-6---------6---|--7----7-11-|-11-11----11-|
|---------------|------------------|-------9--9-|-12----12----|
|---------------|------------------|------------|-------14-14-|
|
| E E  E      E    E E   E     E      E  E E  E    E  E  E  E
|-------------4-|------------------|--5---------|-------------|
|------6--------|--6---------------|-------7----|-----------2-|
|-6-------------|----6---------4---|-----6------|--6-----2----|
|---6-----------|--------6---------|----------7-|-----4-------|
|---------------|------------------|------------|-------------|
|---------------|------------------|------------|-------------|
|
| E E +S   E.      Q    +S  S  S S    Q.      E    H
|---------------|------------------|------------|-------------|
|---9-(9)-10----|-12---(12)--------|------------|-------------|
|---------------|-------------13---|-13------11-|-11----------|
|---------------|------------------|------------|-------------|
|---------------|------------------|------------|-------------|
|---------------|------------------|------------|-------------|


    E   E   E     E    E E  E  E     E   E  E  E     E   E  E  E
|-------------------|------------|---------------|----------------|
|-------------------|------------|---------------|----------------|
|------11-----------|----9-------|------11-------|----------------|
|--11--11--------11-|--9-9-------|------12----12-|--12--12-16-12--|
|--12------12-------|-11---11-14-|--12-----12----|--12-----12-----|
|----------14----14-|------12-12-|--14-----14-14-|------14----14--|
|
|   E   E   E     E    E E  E  E     E   E  E  E     E   E  E  E
|-------------------|------------|-------------2-|----------2-----|
|-----------------2-|--5-------5-|---3------3----|---3---------3--|
|---2-------2-------|-------4----|-------2-------|-------2--------|
|-------4-----------|----6-------|---------------|----------------|
|-------------------|------------|---------------|----------------|
|-------------------|------------|---------------|----------------|
|
|  +Q      +S  S  E    Q    E  E    +H              +Q      Q
|-------------------|---------14-|-(14)----------|-(14)-----------|
|-------------------|------------|---------------|----------------|
|-(11)----(11)------|------------|---------------|----------------|
|-------------------|------------|---------------|----------------|
|-------------------|------------|---------------|----------------|
|-------------------|------------|---------------|----------------|


   E  E   E      E      E  E  E  E    Q    E  E     E   E  E  E
|--------------------|-------------|------------|---------------|
|--------------------|-------------|------------|---------------|
|----11--------------|-------------|------------|---------------|
|----12---------12---|-12-12-16-12-|-14------14-|--14-----14----|
|-12-----12----------|-12----12----|-16---16-14-|--16--16-14-16-|
|-14-----14-----14---|----14----14-|-16---16----|------16----16-|
|
|  E  E   E      E      E  E  E  E    E E  E  E     E   E  E  E
|----------------2---|--------2----|----------7-|---------------|
|---------3----------|--3--------3-|--5----5----|---9-----------|
|-----2--------------|-----2-------|----6-------|-------9-----9-|
|--4-----------------|-------------|------------|---------11----|
|--------------------|-------------|------------|---------------|
|--------------------|-------------|------------|---------------|
|
|  E  E  +S   E    S    H             H            +H
|----14-(14)-16------|-17----------|------------|---------------|
|--------------------|-------------|-17---------|-(17)----------|
|--------------------|-------------|------------|---------------|
|--------------------|-------------|------------|---------------|
|--------------------|-------------|------------|---------------|
|--------------------|-------------|------------|---------------|


   E  E  E  E    E  E   E      E       E  E   E      E
|-------------|--0------0-----------|------------------|
|-------------|--2--2---0------2----|-----7------------|
|-------------|--4--1----------1----|--4--4---7------7-|
|-14----14----|---------------------|--4------4------4-|
|-16-16-14-16-|---------------------|------------------|
|----16----16-|---------------------|------------------|
|
|  E  E  E  E    E  E   E      E       E  E   E      E
|-----9-------|---------------------|------------------|
|--9-----9----|---------------------|--------12--------|
|-----------9-|---------------------|----11---------11-|
|-------------|-11------9-----11----|-12---------------|
|-------------|----11---------------|------------------|
|-------------|---------------------|------------------|
|
|  Q     E  E    E  E  +S   S  S  S    Q     +S   S  E
|----------16-|-14-12-(12)-10----12-|-14----(14)-12-10-|
|-------------|---------------------|------------------|
|-------------|---------------------|------------------|
|-------------|---------------------|------------------|
|-------------|---------------------|------------------|
|-------------|---------------------|------------------|


    E   E   E     E     E   E  E  E    E    E E E
|---------------------|-------------|-------------|
|---3---3---7---------|-----7-------|--3----3-7---|
|---4-------4-----7---|-4---4--7--7-|--4------4-7-|
|-----------4-----4---|-4------4--4-|---------4-4-|
|---------------------|-------------|-------------|
|---------------------|-------------|-------------|
|
|   E   E   E     E     E   E  E  E    E    E E E
|---------------------|--------7----|-------------|
|----------12---------|-----7-------|--7------7---|
|--11------------11---|-----------7-|-------7---7-|
|------12-------------|-9-----------|-------------|
|---------------------|-------------|-------------|
|---------------------|-------------|-------------|
|
|  +Q      +S  S  S S   S S E +Q      +S  S E Q
|-(10)----(10)-9--7-5-|-7-5-7-(7)---|-(7)---7-9---|
|---------------------|-------------|-------------|
|---------------------|-------------|-------------|
|---------------------|-------------|-------------|
|---------------------|-------------|-------------|
|---------------------|-------------|-------------|


  E E E E   E  E E E   E  E      E  E     E   E  E  E
|---------|------2---|----------------|---------------|
|---5-2-2-|-3--3---3-|-3--3------7----|---6------6----|
|-2-2---2-|-2----2---|-4---------4--7-|---6---6--4--6-|
|-2---2---|------4-4-|-----------4--4-|---9---6-----6-|
|---------|----------|----------------|---------------|
|---------|----------|----------------|---------------|
|
| E E E E   E  E E E   E  E      E  E     E   E  E  E
|---------|----------|----------------|---------------|
|---------|-7--------|----7-----------|---------------|
|-------6-|----7---7-|-----------7----|---------------|
|-7---7---|------7---|-9------------9-|--11-----------|
|---9-----|----------|----------------|---------14----|
|---------|----------|----------------|------13----16-|
|
| Q   E E   Q.     E   E  S  S  +Q       +E   E  E  E
|-9---7-5-|-9--------|----------------|---------------|
|---------|--------7-|-9-10-12-(12)---|-(12)----------|
|---------|----------|----------------|---------13-13-|
|---------|----------|----------------|---------------|
|---------|----------|----------------|---------------|
|---------|----------|----------------|---------------|


   E  E  E    E     E   E  E  E    E  E  E  E     E  E  E  E
|-----2---------|-------2-------|-------------|--------------|
|-----2---------|---2---2-------|--3--3--7----|---6-----6----|
|--6-----2----6-|---2------2--6-|--4-----4--7-|---6--6--4--6-|
|--4-----4----4-|----------4--4-|--------4--4-|---9--6-----6-|
|---------------|---------------|-------------|--------------|
|---------------|---------------|-------------|--------------|
|
|  E  E  E    E     E   E  E  E    E  E  E  E     E  E  E  E
|---------------|---------------|-------------|--------------|
|---------------|---------------|-------------|--------------|
|---------------|---------------|-------------|---------4----|
|------------16-|---------------|----16-------|------3-----6-|
|----16---------|--16--------12-|-14----17----|--------------|
|-14----17------|------17-14----|----------19-|--21----------|
|
|  Q     S S  E    +Q.        E    E  E  Q       +Q     E  E
|---------------|---------------|-------------|--------------|
|---------------|---------------|-------------|--------------|
|-13----11---11-|-(11)----------|-------------|--------------|
|---------------|---------------|-------------|--------------|
|---------------|-------------9-|-11-12-14----|-(14)---12-11-|
|---------------|---------------|-------------|--------------|


   E  E E  E    E   E  E  E    E     E  E    E    E  E  E     E
|------------|--------------|------------------|------------------|
|-----7------|--------------|------------------|------------------|
|--6--6------|-----11-------|-------11---------|-----8------------|
|--7----7-11-|-11--11----11-|-11----11------11-|-10-10--7----10---|
|-------9--9-|-12-----12----|-12-------12------|-12-----9-----9---|
|------------|--------14-14-|----------14---14-|------------------|
|
|  E  E E  E    E   E  E  E    E     E  E    E    E  E  E     E
|----------2-|--------------|-----------2------|------------------|
|-----2------|--2-----------|--2-------------2-|--1-----------4---|
|-------2----|------2-----2-|--------2---------|-----2------------|
|--4---------|---------4----|------------------|--------4---------|
|------------|--------------|------------------|------------------|
|------------|--------------|------------------|------------------|
|
|  Q.      E   +H             +S  S  E  S S  E    Q    +S  S  S S
|------------|--------------|------------------|------------------|
|------------|--------------|----------10-9--7-|--7----(7)----5-4-|
|------------|--------------|------------------|------------------|
|------------|--------------|------------------|------------------|
|-11-------9-|-(9)----------|-(9)--------------|------------------|
|------------|--------------|------------------|------------------|


   E   E E  E      E  E E  E    E     E    E  E
|---------------|------------|------------------|
|---------------|------------|------------------|
|------8--------|--9----9----|-------11---------|
|-10--10-7-10---|--9----9--9-|-10----13------13-|
|-12-----9--9---|-11-11---11-|-11---------11-15-|
|---------------|----12------|------------14----|
|
|  E   E E  E      E  E E  E    E     E    E  E
|--2------------|------------|-------------2----|
|------1--------|-----2-5----|--------4---------|
|-----------2---|--1---------|--5-------------1-|
|--------4------|----------7-|------------------|
|---------------|------------|------------------|
|---------------|------------|------------------|
|
|  Q.       S S    E  E Q      +S  S  S S  Q
|---------------|------------|------------------|
|--4--------5-7-|--9---------|------------------|
|---------------|-----9-9----|-(9)----8-6--6----|
|---------------|------------|------------------|
|---------------|------------|------------------|
|---------------|------------|------------------|


   E     E    E    E      E    E  E   E    E   E E E     E  E E E
|----------------------|----------------|--------------|-----------|
|----------------------|----------------|----------4---|----5------|
|--------9-------------|------11--------|--------1-5---|-6--6---6--|
|-11----11--------11---|-10---13-----13-|-----16-4-----|-6----6----|
|-11---------11--------|-11------11--15-|-15--18-------|------7-7--|
|------------12---12---|---------14-----|-16-----------|-----------|
|
|  E     E    E    E      E    E  E   E    E   E E E     E  E E E
|----------------------|----------2-----|------2-------|-4----9----|
|--2-----5-------------|--2----4--------|--1-----4-----|----5---9--|
|------------------4---|--------------1-|--------------|-----------|
|-------------6--------|----------------|----------6---|-----------|
|----------------------|----------------|--------------|-----------|
|----------------------|----------------|--------------|-----------|
|
| +S  E    S  S S  S S    S S  E +Q       +E   E E S S   Q.     E
|----------------------|----------------|--------------|-----------|
|----------------------|-------7-(7)----|-(7)----5-4---|-4------2--|
|-(6)------------------|-11-9-----------|--------------|-----------|
|----------6--7-9-11---|----------------|--------------|-----------|
|----------------------|----------------|--------------|-----------|
|----------------------|----------------|--------------|-----------|


   E E E E    E  E  E    E   E E E   E     E  E   E  E
|----------|---------------|-------------|-------------|
|----5-----|-----5---------|---7---------|----5--------|
|--6-6---6-|--6--6-------6-|-7-7-----7---|-6--6--------|
|--6---6---|--6-----6------|-7---7-------|-7------7-11-|
|------7-7-|--------7----7-|-----9---9---|--------9--7-|
|----------|---------------|-------------|-------------|
|
|  E E E E    E  E  E    E   E E E   E     E  E   E  E
|------9---|--------9------|-------------|-------------|
|----9-----|--9----------9-|-7-----------|-7---------5-|
|--------9-|-----9---------|-----6---7---|----6--------|
|-11-------|---------------|---7---------|--------7----|
|----------|---------------|-------------|-------------|
|----------|---------------|-------------|-------------|
|
|  H         +Q    +S  S E   Q   S S S S   E.   S Q
|----------|---------------|-------------|-------------|
|--2-------|-(2)---(2)-----|-----2-3---5-|-7----5-7----|
|----------|---------------|-------------|-------------|
|----------|---------------|-------------|-------------|
|----------|---------------|-------------|-------------|
|----------|---------------|-------------|-------------|


   E  E E   E       E  E     E  E     E   E  E  E        E   E  E  E
|----------------|----------------|------------------|---------------|
|----------------|-----5----------|------------------|---------------|
|-----7----------|--6--6----------|------10----------|------11-------|
|--9--9-5---9----|--7--------7-11-|---9--12-----9----|--11--11-------|
|-10----5---7----|-----------7--7-|--10-----10-------|--13-----13-16-|
|----------------|----------------|---------13-10----|---------14-14-|
|
|  E  E E   E       E  E     E  E     E   E  E  E        E   E  E  E
|----------------|----------------|------------------|-------------2-|
|-------3--------|-----5-----5----|----------3-------|-------2-------|
|-----4----------|--------------6-|-------4----------|----------3----|
|--5--------5----|--7-------------|---5---------5----|---4-----------|
|----------------|----------------|------------------|---------------|
|----------------|----------------|------------------|---------------|
|
| +Q    S E    S    E.    S  Q       +Q      E  S  S    +H
|----------------|----------------|------------------|---------------|
|-(7)---7-8---10-|-12----10-12----|-(12)----------11-|-(11)----------|
|----------------|----------------|------------------|---------------|
|----------------|----------------|------------------|---------------|
|----------------|----------------|------------------|---------------|
|----------------|----------------|------------------|---------------|


                     Q=76
    E   E  E  E    E  E  E     E
|---------------|-------------------|
|---------------|-------------------|
|---------------|-------------------|
|---------16----|----16-------------|
|--16--16-13-16-|-16-16-13----16----|
|--18--14----14-|-18----14----14----|
|
|   E   E  E  E    E  E  E     E
|---------------|-------------------|
|---2------2----|--------2----------|
|-------3-----3-|-----3--------3----|
|---------------|--4----------------|
|---------------|-------------------|
|---------------|-------------------|
|
|  +H              Q     S  S  S  S
|---------------|--------9-10----12-|
|-(11)----------|-------------------|
|---------------|-------------------|
|---------------|-------------------|
|---------------|-------------------|
|---------------|-------------------|


  Q=67Q=59  Q=52Q=46
   E   E     E   E        H        +H
|---------------------|---------|----------*|
|---------------------|---------|----------*|
|---------------------|---------|----------*|
|-----------16--------|--16-----|-(16)-----*|
|-16--16----13--16----|--16-----|-(16)-----*|
|-18--14--------14----|--14-----|-(14)-----*|
|
|  E   E     E   E        H        +Q.   E
|--2------------------|---------|----------*|
|------2---------2----|---------|----------*|
|------------3--------|---------|----------*|
|---------------------|---4-----|--(4)-----*|
|---------------------|---------|----------*|
|---------------------|---------|----------*|
|
|  E.     S  E.     S    +H        +Q.   E
|-14-----15-14-----18-|-(18)----|-(18)-----*|
|---------------------|---------|----------*|
|---------------------|---------|----------*|
|---------------------|---------|----------*|
|---------------------|---------|----------*|
|---------------------|---------|----------*|


Duration Legend
---------------
W - whole; H - half; Q - quarter; E - 8th; S - 16th; T - 32nd; X - 64th; a - acciaccatura
+ - note tied to previous; . - note dotted; .. - note double dotted
Uncapitalized letters represent notes that are staccato (1/2 duration)
Irregular groupings are notated above the duration line
Duration letters will always appear directly above the note/fret number it represents the
duration for.  Duration letters with no fret number below them represent rests.  Multi-
bar rests are notated in the form Wxn, where n is the number of bars to rest for.  Low
melody durations appear below the staff

Tablature Legend
----------------
 h   - hammer-on
 p   - pull-off
 b   - bend
 pb  - pre-bend
 r   - bend release (if no number after the r, then release immediately)
 /\  - slide into or out of (from/to "nowhere")
 s   - legato slide
 S   - shift slide
  - natural harmonic
[n]  - artificial harmonic
n(n) - tapped harmonic
 ~   - vibrato
 tr  - trill
 T   - tap
 TP  - trem. picking
 PM  - palm muting
\n/  - tremolo bar dip; n = amount to dip
 \n  - tremolo bar down
 n/  - tremolo bar up
/n\  - tremolo bar inverted dip
 =   - hold bend; also acts as connecting device for hammers/pulls
   - volume swell (louder/softer)
 x   - on rhythm slash represents muted slash
 o   - on rhythm slash represents single note slash

Misc Legend
-----------
 |  - bar
||  - double bar
||o - repeat start
o|| - repeat end
*|  - double bar (ending)
 :  - bar (freetime)
 $  - Segno
 &  - Coda
Tempo markers -  = BPM(8/16=s8/s16), where s8 = swing 8ths, s16 = swing 16ths


***************************************************************************************
* Generated using Power Tab Editor by Brad Larsen - http://powertab.guitarnetwork.org *
***************************************************************************************
Comments