Shadows - Back Home Chords & Tabs

 

Back Home Chords & Tabs

Shadows Chords & Tabs

Version: 1 Type: Tab 0 ratings
1 star 2 stars 3 stars 4 stars 5 stars
comments

Back Home Tab

   
                                    BACK HOME
                           As recorded by The Shadows

Transcribed by Tan Tee Peng

  Q=137
4/4
  Gtr I
  W          W          W          W
|----------|----------|----------|------|
|----------|----------|----------|------|
|----------|----------|----------|------|
|----------|----------|----------|------|
|----------|----------|----------|------|
|----------|----------|----------|------|


  W          W          H    Q  Q    H    Q  Q
|----------|----------|------------|------------|
|----------|----------|------------|------------|
|----------|----------|------------|------4-----|
|----------|----------|------------|-2-------6--|
|----------|----------|---------2--|------------|
|----------|----------|------------|------------|


  H    Q  Q    Q.   E E E +S  S E   H    +S  S E +S  E.   H    +S  S E +S  S 
E
|------------|--------------------|---------------------|----------------------|
|------------|--------------------|---------------------|----------------------|
|------------|--------------------|---------------------|--------------------1-|
|------------|--------2-4-(4)---2-|------------2-(2)----|------------2-(2)-----|
|-7----6--5--|-4------------------|-3----(3)---------4--|-2----(2)-------------|
|------------|--------------------|---------------------|----------------------|


  H    E. S +E  E   H    +Q   +S  S E   +E  E E E +H       H    Q  Q
|-----------------|-------------------|------------------|-------------|
|-----------------|-------------------|------------------|-------------|
|---------4-(4)---|-------------------|-----8-6-4-(4)----|------4------|
|-4----6--------6-|-----------------9-|-(9)---7-6-(6)----|-2-------6---|
|-----------------|-7----(7)--(7)-----|------------------|-------------|
|-----------------|-------------------|------------------|-------------|


  H    Q  Q    Q.   E E E +S  S E   H    +S  S E E E   H    Q  Q
|------------|--------------------|------------------|------------|
|------------|--------------------|------------------|------------|
|------------|--------------------|------------------|---------1--|
|------------|--------2-4-(4)---2-|--------------2---|------2-----|
|-7----6--5--|-4------------------|-3----(3)---------|-2----------|
|------------|--------------------|------------------|------------|


  H    +S  S E +E  E   W          +H     +E  E Q    Q  Q  Q  Q
|--------------------|----------|-----------------|--------------|
|--------------------|----------|-----------------|--------------|
|--------------------|----------|-----------------|----2---------|
|-4----(4)---6-(6)-4-|-2--------|-(2)----(2)------|-------4--2---|
|--------------------|----------|-----------------|--------------|
|--------------------|----------|-----------------|--------------|


  +S  S E Q  Q  Q    E. S +E  E E. S +E  E   H    +Q.   E   E E +Q   Q  E E
|------------------|-----------------------|--------------|------------------|
|------------------|----0-(0)--------------|--------------|------------------|
|---------2--------|-1--------1------------|--------------|---2-(2)----------|
|-(2)--------4--2--|------------4--2-(2)---|-2----(2)-----|----------4--2----|
|------------------|---------------------4-|--------------|------------------|
|------------------|-----------------------|--------------|------------------|


  E E +Q   Q  E E   E S S E E S S E E E
|-----------------|---------------------|
|-----------------|---4-----4-2-------4-|
|---3-(3)--1------|---4-----4-2-------4-|
|-------------4---|---------------------|
|-----------------|---------------------|
|-----------------|---------------------|


  +E  E Q  Q.   E   E S S E  E Q   S S E
|-----------------|---7------9-----------|
|-(4)-4-2--0------|---9-----10-9--10-----|
|-(4)-4-2--1------|------------9--11-----|
|-----------------|----------------------|
|-----------------|----------------------|
|-----------------|----------------------|


   S S S S  S S E +Q.   E   E  S S E  E  E E  S S E
|-------------------------|----9-----11-------------|
|-12-------10---9-(9)-----|---11-----12-11---12-----|
|--9-------11---9-(9)-----|-------------11---13-----|
|------9------------------|-------------------------|
|-------------------------|-------------------------|
|-------------------------|-------------------------|


   H    H      E  E  E  E  E  E  E  E
|------------|---14----14-12-12-11-11--|
|-14---------|------16----14----12-----|
|-15---------|-------------------------|
|------------|-------------------------|
|------------|-------------------------|
|------------|-------------------------|


   E  E  E  E  S S E  Q     S S E Q  H      H    Q   S S  S  S
|--9-12------------------|----------------|--------------------|
|-10-14-------12-----12--|-12-------------|--------------------|
|-------11----11---------|-13-------------|--------------13-13-|
|----------13------------|----------------|---------14---------|
|------------------------|----------------|--------------------|
|------------------------|----------------|--------------------|


   S  S  S  S  S  S  S  S  S  S  S  S  S  S  S  S
|-------------------------------------------------|
|-12-12-12-12-12-12-12-12-------------------------|
|-------------------------13-13-13-13-------------|
|-------------------------------------14-14-14-14-|
|-------------------------------------------------|
|-------------------------------------------------|


   S  S  S  S  S  S  S  S  S  S  S  S  S  S  S  S
|-------------------------------------------------|
|-------------------------------------------------|
|-------------------------------------------------|
|-12-12-12-12-12-12-12-12-14-14-14-14-12-12-12-12-|
|-------------------------------------------------|
|-------------------------------------------------|


   S  S  S  S  S  S  S  S S S S S S S S S   S S S S S S S S S S S S S S S S
|-----------------------------------------|---------------------------------|
|-----------------------------7-7-7-5-5-5-|---------------------------------|
|-------------------------9-9-------------|-5-5-5-5-5-5-5-5-5-5-5-5-5-5-5-5-|
|-11-11-11-11-11-11-11-11-----------------|---------------------------------|
|-----------------------------------------|---------------------------------|
|-----------------------------------------|---------------------------------|


  S S S S S S S S S S S S S S S S   S S S S S S S S S S S S S S S S
|-------------------------4-4-4-4-|-2-2-2-2-2-2-2-2-4-4-2-2-4-5-5-5-|
|-----------------5-5-5-5---------|---------------------------------|
|-4-4-4-4-4-4-4-4-----------------|---------------------------------|
|---------------------------------|---------------------------------|
|---------------------------------|---------------------------------|
|---------------------------------|---------------------------------|


  S S S S S S S S S S S S S S S S   S S S S S S S S S S S S S S S S
|-4-4-4-4-4-4-4-4-4-4-4-4-3-3-3-3-|-2-2-2-2-2-2-2-2-2-2-------------|
|---------------------------------|---------------------5-5-5-5-5-5-|
|---------------------------------|---------------------------------|
|---------------------------------|---------------------------------|
|---------------------------------|---------------------------------|
|---------------------------------|---------------------------------|


  S S S S S S S S S S S S S S S S   S S S S S S S S S S S S S S S S
|-7-7-7-7-7-7-7-7-----------------|---------------------------------|
|-----------------9-9-9-9---------|-----------------5-5-5-5-3-3-3-3-|
|-------------------------9-9-9-9-|-7-7-7-7-7-7-7-7-----------------|
|---------------------------------|---------------------------------|
|---------------------------------|---------------------------------|
|---------------------------------|---------------------------------|

[ Tab from: http://www.guitartabs.cc/tabs/s/shadows/back_home_tab.html ]
  S S S S S S S S S S S S S S S S   S S S S S S S S S S S S S S S S
|---------------------------------|---------------------------------|
|-2-2---------2-2-5-5-------------|-----------------5-5-5-5-6-6-6-7-|
|-----2-2-2-2---------6-6-6-------|-7-7-----5-5-5-5-----------------|
|---------------------------7-7-7-|-----7-7-------------------------|
|---------------------------------|---------------------------------|
|---------------------------------|---------------------------------|


  S S S S S S S S S S S S S S S S   S S S S S S S S S S S S S S E
|---------------7-7-7-7-7---------|-------------------------------|
|-7-7-8-8-9-9-9-----------9-9-9-9-|-7-7-7-7-7-7-7-8-9-9-9-8-8-8-7-|
|---------------------------------|-------------------------------|
|---------------------------------|-------------------------------|
|---------------------------------|-------------------------------|
|---------------------------------|-------------------------------|


  E E +E  E E E E E   +H     +Q.   E   E E +Q   Q  Q    +S  S E Q  Q  E E
|-------------------|----------------|----------------|--------------------|
|-5-7-(7)-5-----2---|----------------|----------------|--------------------|
|-----------6-4---4-|-(4)----(4)-----|---2-(2)--------|---------2----------|
|-------------------|----------------|----------4--2--|-(2)--------4--2----|
|-------------------|----------------|----------------|--------------------|
|-------------------|----------------|----------------|--------------------|


  E. S +E  E E. S +E  E   H    +Q.   E
|-----------------------|--------------|
|----0-(0)--------------|--------------|
|-1--------1------------|--------------|
|------------4--2-(2)---|--------------|
|---------------------4-|-2----(2)-----|
|-----------------------|--------------|


  E E +Q   E. S E E   E E +Q   E E S S E
|-------------------|---------------------|
|-------------------|---------------------|
|---2-(2)-----------|---3-(3)--1----------|
|----------4--2-4-2-|------------4-6------|
|-------------------|---------------------|
|-------------------|---------------------|


  Q  E S S +E. S E E   +S  S E Q  Q  E E   E S S E  E Q   S S E
|--------------------|-------------------|---7------9-----------|
|--------4-(4)-4-2-4-|-(4)---4-2--0------|---9-----10-9--10-----|
|--------4-(4)-4-2-4-|-(4)---4-2--1--2---|------------9--11-----|
|--------------------|---------------4---|----------------------|
|--------------------|-------------------|----------------------|
|--------------------|-------------------|----------------------|


   S S S S  S S E +Q.   E   E  S S E E  E E  S S E    H    Q  E S  S
|-------------------------|----9-------------------|--------------14-|
|-12-------10---9-(9)-----|---11-----9-11---12-----|-14-----------16-|
|--9-------11---9-(9)-----|----------9-11---13-----|-15--------------|
|------9------------------|------------------------|-----------------|
|-------------------------|------------------------|-----------------|
|-------------------------|------------------------|-----------------|


   +E   E  S S E  S S E  E  S S   Q   Q  S S E Q    S S E Q  H      W
|-(14)-14-12-----11------9-11---|-----9--7-----5--|-7-------------|------|
|-(16)-16-14-----12-----10-12---|----10--9-----7--|-9-------------|------|
|-------------------------------|-----------------|---------------|------|
|-------------------------------|-----------------|---------------|------|
|-------------------------------|-----------------|---------------|------|
|-------------------------------|-----------------|---------------|------|


  H    Q   Q     H     E  E  Q    H    E E +S  S E   H.      Q
|-------------|-----------------|------------------|-------------|
|-------------|-----------------|------------------|-------------|
|-------------|-----------------|------------------|-------------|
|------9------|-----------------|------------------|-------------|
|-7-------11--|-----------------|------7-9-(9)---7-|-------------|
|-------------|-12----11-11-10--|-9----------------|-8-----------|


  H    Q  Q    Q  +S  S E E. S +E  E   H    +Q   +S  S E   +E  E E E Q.   E
|------------|-----------------------|-------------------|------------------|
|------------|-----------------------|-------------------|------------------|
|------------|---------------4-(4)---|-------------------|-----8---6-4------|
|---------6--|-4--(4)---5-6--------6-|-----------------9-|-(9)---7---6------|
|------7-----|-----------------------|-7----(7)--(7)-----|------------------|
|-7----------|-----------------------|-------------------|------------------|


  H    Q  Q    H    E. S +Q     H    E E +S  S E   H.      Q
|------------|----------------|------------------|-------------|
|------------|-0--------------|------------------|-------------|
|---------1--|------1---------|------------------|-------------|
|------2-----|---------2-(2)--|------2-4-(4)---2-|-------------|
|-2----------|----------------|-4----------------|-3-----------|
|------------|----------------|------------------|-------------|


  H    Q  Q    H    Q  Q    H    +Q   +S  S E   E E E E E E Q
|------------|------------|-------------------|-----------------|
|------------|------------|-------------------|-----------------|
|---------1--|------------|-------------------|-----------------|
|------2-----|-4----6--4--|-2----(2)--(2)-----|---1-------------|
|-2----------|------------|-------------------|-----4---6-4-----|
|------------|------------|-------------------|-----------------|


  H    Q  Q    H    Q  Q    H    S S S S E S S   H    +Q   +S  S E
|------------|------------|--------------------|-------------------|
|------------|------------|--------------------|-------------------|
|------4-----|------------|--------------------|-------------------|
|-2-------6--|------------|------2---4-----2---|-------------------|
|------------|-7----6--5--|-4------------------|-3----(3)--(3)-----|
|------------|------------|--------------------|-------------------|


  H    Q  Q    Q.   E +Q   Q    E E +Q   +H       E E Q  E E Q
|------------|----------------|-----------------|---------------*|
|------------|----------------|-----------------|-----4---------*|
|---------1--|----------------|---4-(4)--(4)----|---4----4-2----*|
|------2-----|-4----6-(6)--4--|-6---------------|------------4--*|
|-2----------|----------------|-----------------|---------------*|
|------------|----------------|-----------------|---------------*|


Duration Legend
---------------
W - whole; H - half; Q - quarter; E - 8th; S - 16th; T - 32nd; X - 64th; a - 
acciaccatura
+ - note tied to previous; . - note dotted; .. - note double dotted
Uncapitalized letters represent notes that are staccato (1/2 duration)
Irregular groupings are notated above the duration line
Duration letters will always appear directly above the note/fret number it 
represents the
duration for.  Duration letters with no fret number below them represent 
rests.  Multi-
bar rests are notated in the form Wxn, where n is the number of bars to rest 
for.  Low
melody durations appear below the staff

Tablature Legend
----------------
h   - hammer-on
p   - pull-off
b   - bend
pb  - pre-bend
r   - bend release (if no number after the r, then release immediately)
/\  - slide into or out of (from/to "nowhere")
s   - legato slide
S   - shift slide
  - natural harmonic
[n]  - artificial harmonic
n(n) - tapped harmonic
~   - vibrato
tr  - trill
T   - tap
TP  - trem. picking
PM  - palm muting
\n/  - tremolo bar dip; n = amount to dip
\n  - tremolo bar down
n/  - tremolo bar up
/n\  - tremolo bar inverted dip
=   - hold bend; also acts as connecting device for hammers/pulls
  - volume swell (louder/softer)
x   - on rhythm slash represents muted slash
o   - on rhythm slash represents single note slash

Misc Legend
-----------
|  - bar
||  - double bar
||o - repeat start
o|| - repeat end
*|  - double bar (ending)
:  - bar (freetime)
$  - Segno
&  - Coda
Tempo markers -  = BPM(8/16=s8/s16), where s8 = swing 8ths, 
s16 = swing 16ths


***************************************************************************************
* Generated using Power Tab Editor by Brad Larsen - 
http://powertab.guitarnetwork.org *
***************************************************************************************

Comments