Shadows - Apache Chords & Tabs

 

Apache Chords & Tabs

Shadows Chords & Tabs

Version: 6 Type: Tab 0 ratings
1 star 2 stars 3 stars 4 stars 5 stars
comments

Apache Tab

-------------------5-3-0-----------------------5-3-0----
-----1-3bn----1-3----------------1-3bn----1-3-----------
---2---------------------------2------------------------
--------------------------------------------------------
--------------------------------------------------------
--------------------------------------------------------
[ Tab from: http://www.guitartabs.cc/tabs/s/shadows/apache_tab_ver_6.html ]
--------------------------------------------------------
--------------------------------------------------------
-----2-2---2--------------------2-2---2-----------------
---2-----2---4-4-2-0-2--------2-----2---4-4-2-0-2-------
--------------------------------------------------------
--------------------------------------------------------

This is my first tab and is in standard tuning.

(bn = bend note)
Comments