Shadows - Alentejo Chords & Tabs

 

Alentejo Chords & Tabs

Shadows Chords & Tabs

Version: 1 Type: Tab 0 ratings
1 star 2 stars 3 stars 4 stars 5 stars
comments

Alentejo Tab

#----------------------------------PLEASE NOTE----------------------------------#
# This file is the author's own work and represents their interpretation of the #
# song. You may only use this file for private study, scholarship, or research. #
#-------------------------------------------------------------------------------#

Roman numerals suggests position

Song Title : Alentejo 
                         Artist : The Shadows
                         Album  : From Hank, Bruce, Brian & John
                         Tabber : Goran (http://goran.tangring.com)
Perform on nylon string guitar or fretboard pup, reverb only


 intro  VI              I 
-------8--8--7--6------3--3--3--2--1---------------------------------------
-------6----------9----1--------------4---2h4p2--1-------------------------
-------7---------------2---------------------------------------------------
---------------------------------------------------------------------------
---------------------------------------------------------------------------
---------------------------------------------------------------------------



     V
--------------------5------------------------------------------------------
-----------5--6--8----8--6--8--6--5--6--5----------------------------------
-----5--7----------------------------------7--5--7--7s8--8-----------------
---------------------------------------------------------------------------
---------------------------------------------------------------------------
---------------------------------------------------------------------------

     V
--------------------5------------------------------------------------------
-----------5--6--8----8--6--8--6--5--6--5----------------------------------
-----5--7----------------------------------7--5--7--7s9--9-----------------
---------------------------------------------------------------------------
---------------------------------------------------------------------------
---------------------------------------------------------------------------

VI                     I 
-------8--8--7--6------3--3--3--2--1---------------------------------------
-------6----------9----1--------------4---2h4p2--1--1--1--3-------1--------
-7-6-7-7---------------2-------------------------------------2-3-----------
---------------------------------------------------------------------------
---------------------------------------------------------------------------
---------------------------------------------------------------------------

    V
--------------------5------------------------------------------------------
-----------5--6--8----8--6--8--6--5--6--5----------------------------------
-----5--7----------------------------------7--5--7--7s8--8-----------------
---------------------------------------------------------------------------
---------------------------------------------------------------------------
---------------------------------------------------------------------------

     V
--------------------5------------------------------------------------------
-----------5--6--8----8--6--8--6--5--6--5----------------------------------
-----5--7----------------------------------7--5--7--7s9--9-----------------
---------------------------------------------------------------------------
---------------------------------------------------------------------------
---------------------------------------------------------------------------

 VI                    I
-------8--8--7--6------3--3--3--2--1---------------------------------------
-------6----------9----1--------------4---2h4p2--1--1--1--3-------1--------
-7-6-7-7---------------2-------------------------------------2-3-----------
---------------------------------------------------------------------------
---------------------------------------------------------------------------
---------------------------------------------------------------------------


 V                                  VII 
---------5--5--5--5--5-----5---------------10--10--10---10--10-8--10--8--6-
------5-----------------8-----8--6----7-10---------------------------------
---6--------------------------------7--------------------------------------
-7-------------------------------------------------------------------------
---------------------------------------------------------------------------
---------------------------------------------------------------------------


[ Tab from: http://www.guitartabs.cc/tabs/s/shadows/alentejo_tab.html ]
   V
-------------8--8--8---8--6--8--6--5---------------------------------------
------5---8----------------------------------------------------------------
---5-----------------------------------------------------------------------
---------------------------------------------------------------------------
---------------------------------------------------------------------------
---------------------------------------------------------------------------



  V
---------------------------------------------------------------------------
---------------------------------------------------------------------------
---------------------------------------------------------------------------
--------------5--7--5-----5------------------------------------------------
-----5--7--8-----------8-----8--7--8--7--5-----5--5s6----------------------
--8-----------------------------------------8--------- --------------------


  V
---------------------------------------------------------------------------
---------------------------------------------------------------------------
---------------------------------------------------------------------------
--------------5--7--5-----5------------------------------------------------
-----5--7--8-----------8-----8--7--8--7--5-----5--5s7----------------------
--8-----------------------------------------8--------- --------------------

 no fixed position
---------------------------------------------------------------------------
---------------------------------------------------------------------------
-----------5--5--4--3--1---------------------------------------------------
---------------------------5--5--4--3--1-----------------------------------
--5--4--5---------------------------------4h6-4-3--3--3-3--3-4--6--0--1--3-
---------------------------------------------------------------------------

 V                                  VII
---------5--5--5--5--5-----5---------------10--10--10---10--10-8--10--8--6-
------5-----------------8-----8--6----7-10---------------------------------
---6--------------------------------7--------------------------------------
-7-------------------------------------------------------------------------
---------------------------------------------------------------------------
---------------------------------------------------------------------------


   V
-------------8--8--8---8--6--8--6--5---------------------------------------
------5---8----------------------------------------------------------------
---5-----------------------------------------------------------------------
---------------------------------------------------------------------------
---------------------------------------------------------------------------
---------------------------------------------------------------------------


     V
--------------------5------------------------------------------------------
-----------5--6--8----8--6--8--6--5--6--5----------------------------------
-----5--7----------------------------------7--5--7--7s8--8-----------------
---------------------------------------------------------------------------
---------------------------------------------------------------------------
---------------------------------------------------------------------------

      V
--------------------5------------------------------------------------------
-----------5--6--8----8--6--8--6--5--6--5----------------------------------
-----5--7----------------------------------7--5--7--7s9--------------------
---------------------------------------------------------------------------
---------------------------------------------------------------------------
---------------------------------------------------------------------------

 VI                    I
-------8--8--7--6------3--3--3--2--1---------------------------------------
-------6----------9----1--------------4---2h4p2--1--1-1-1--3-------1-1-1---
-7-6-7-7---------------2-------------------------------------2-3-----------
---------------------------------------------------------------------------
---------------------------------------------------------------------------
---------------------------------------------------------------------------



                             
-----------------------8---------------------------------------------------
-1--3---------1--1--1--------5--6--7--6--5---------------------------------
-------2--3------------------5--7--8--7--5---------------------------------
---------------------------------------------------------------------------
---------------------------------------------------------------------------
---------------------------------------------------------------------------




Comments