Shadows - 1 Chords & Tabs

 

1 Chords & Tabs

Shadows Chords & Tabs

Version: 1 Type: Tab 0 ratings
1 star 2 stars 3 stars 4 stars 5 stars
comments

1 Tab

#----------------------------------PLEASE NOTE--------------------------------#
#This file is the author's own work and represents their interpretation of the#
#song. You may only use this file for private study, scholarship, or research.#
#-----------------------------------------------------------------------------#
#-- File created with Instab - http://www.pconline.com/~smcarey/instab.html --#
#-----------------------------------------------------------------------------#

Author/Artist: The Shadows
Title: 1861
Transcribed by: John T


------8x--12x--10x--8x--------------------8x--12x--10x-------8x--12x--10x-----
------------------------10x--8x-----------------------------------------------
---------------------------------9x-------------------------------------------
-10x---------------------------------10x----------------10x-------------------
------------------------------------------------------------------------------
------------------------------------------------------------------------------
                                                                              

-8x--------------------8x--12x--10x|------------------------------------------
-----10x--8x-----------------------|------------------------------------------
--------------9x-------------------|-------------2--0-------------------------
------------------10x--------------|-------0--2--------2--0-------------------
-----------------------------------|----3--------------------3--0--3-----3----
-----------------------------------|-3--------------------------------3-------
                                                                              

------------------------------------------------------------------------------
------------------------------------------------------------------------------
-------2--0-------------------------------------------------5--5--7--5--5-----
-0--2--------2--0---------------------------0--2/5----5--7-----------------7--
-------------------3--1v--0--------0--3--3------------------------------------
-----------------------------3--3---------------------------------------------
                                                                              

---------------------------|--------------------------------------------------
---------------------------|--------------------------------------------------
--5------------------------|-------------2--0-----------------------------2---
-----7--5-----5-----5------|-------0--2--------2--0-----------------0--2------
-----------7-----7-----7--5|----3--------------------3--0--3-----3------------
---------------------------|-3--------------------------------3---------------
                                                                              

------------------------------------------------------------------------------
-------------------------------------------------------------------------8----
-0-------------------------------------------------5--5--7--5--7/9----9-------
----2--0---------------------------0--2/5----5--7-----------------------------
----------3--1v--0--------0--3--3---------------------------------------------
--------------------3--3------------------------------------------------------
                                                                              

------------8--8--10--8-------------8x--12x--10x--8x--------------------8x----
-10--8--10---------------10--8------------------------10x--8x-----------------
---------------------------------------------------------------9x-------------
--------------------------------10x--------------------------------10x--------
------------------------------------------------------------------------------
------------------------------------------------------------------------------
                                                                              

-12x--10x|--------------------------------------------------------------------
---------|--------------------------------------------------------------------
---------|---------------------------------------------9--7----------7--7--9--
---------|-10--9--7-------------10--9--7------------7--------10--10-----------
---------|-----------10--7--10------------10--7--9----------------------------
---------|--------------------------------------------------------------------
                                                                              

-----------------------|------------------------------------------------------
-------------8--8--8--8|------------------------------------------------------
--9--10--10------------|-------------2--0-----------------------------2--0----
-----------------------|-------0--2--------2--0-----------------0--2----------
-----------------------|----3--------------------3--0--3-----3----------------
-----------------------|-3--------------------------------3-------------------
                                                                              

------------------------------------------------------------------------------
--------------------------------------------------------------------8--10--8--
------------------------------------------------5--5--7--5--7/9--9------------
-2--0---------------------------0--2/5----5--7--------------------------------
-------3--1v--0--------0--3--3------------------------------------------------
-----------------3--3---------------------------------------------------------
                                                                              
[ Tab from: http://www.guitartabs.cc/tabs/s/shadows/1_tab.html ]
------8--8--10--8--------------8x--12x--10x--8x--------------------8x--12x----
--10---------------10--8-------------------------10x--8x----------------------
----------------------------------------------------------9x------------------
--------------------------10x---------------------------------10x-------------
------------------------------------------------------------------------------
------------------------------------------------------------------------------
                                                                              

-10x----------------------------------------------------12--10----------10----
------13--12--10-------------13--12--10-------------10----------13--13--------
------------------12--9--12--------------12--9--12----------------------------
------------------------------------------------------------------------------
------------------------------------------------------------------------------
------------------------------------------------------------------------------
                                                                              

-10--12--12--13--13--15--15--15--15--|----------------------------------------
-------------------------------------|----------------------------------------
-------------------------------------|-------------2--0-----------------------
-------------------------------------|-------0--2--------2--0-----------------
-------------------------------------|----3--------------------3--0--3-----3--
-------------------------------------|-3--------------------------------3-----
                                                                              

------------------------------------------------------------------------------
------------------------------------------------------------------------------
--------2--0-----------------------------------------------5--5--7--5--5------
--0--2--------2--0---------------------------0--2/5--5--7-----------------7---
--------------------3--1v--0--------0--3--3-----------------------------------
------------------------------3--3--------------------------------------------
                                                                              

--------------------------|---------------------------------------------------
--------------------------|---------------------------------------------------
-5------------------------|-------------2--0-----------------------------2----
----7--5-----5-----5------|-------0--2--------2--0-----------------0--2-------
----------7-----7-----7--5|----3--------------------3--0--3-----3-------------
--------------------------|-3--------------------------------3----------------
                                                                              

------------------------------------------------------------------------------
---------------------------------------------------------------------8--10----
-0-----------------------------------------------5--5--7--5--7/9--9-----------
----2--0---------------------------0--2/5--5--7-------------------------------
----------3--1v--0--------0--3--3---------------------------------------------
--------------------3--3------------------------------------------------------
                                                                              

--------8--8--10--8--------------8x--12x--10x--8x--------------------8x--12x--
-8--10---------------10--8-------------------------10x--8x--------------------
------------------------------------------------------------9x----------------
----------------------------10x---------------------------------10x-----------
------------------------------------------------------------------------------
------------------------------------------------------------------------------
                                                                              

--10x-------------------8--10--8--------------8x--12x--10x--8x----------------
----------8--10--8--10------------10--8-------------------------10x--8x-------
-------9-----------------------------------------------------------------9x---
-----------------------------------------10x----------------------------------
------------------------------------------------------------------------------
------------------------------------------------------------------------------
                                                                              

------8x--12x--10x-------------------8--10b11r--8--------------8x--12x--10x---
-----------------------8--10--8--10----------------10--8----------------------
--------------------9---------------------------------------------------------
-10x------------------------------------------------------10x-----------------
------------------------------------------------------------------------------
------------------------------------------------------------------------------
                                                                              

-8x--------------------8x--10x--8x--------------------------------------------
-----10x--8x------------------------------------------------------------------
--------------9x--------------------------------------------------------------
------------------10x---------------------------------------------------------
------------------------------------------------------------------------------
------------------------------------------------------------------------------
             (Not quite the way it finishes, but has to end somewhere!)       


#--------------- I got this file from 'Shadows in Plain Text' ----------------#
#--------------- http://www.alphalink.com.au/~whitebox/Shads/ ----------------#


Comments