Shadowkings - Paradise Lost Chords & Tabs

 

Paradise Lost Chords & Tabs

Shadowkings Chords & Tabs

Version: 2 Type: Tab 0 ratings
1 star 2 stars 3 stars 4 stars 5 stars
comments

Paradise Lost Tab

   
#----------------------------------PLEASE NOTE---------------------------------#
#This file is the author's own work and represents their interpretation of the #
#song. You may only use this file for private study, scholarship, or research. #
#------------------------------------------------------------------------------##
#

Date: Thu, 23 May 1996 10:10:24 +0200 (MET DST)
From: Pasztor Andras 

              Paradise Lost : Shadowkings /Draconian Times/

Tabbed By Andrew

Tune down a whole step! ( DAFCGD )

Riff A
E------------------|-----------------|
H------------------|-----------------|
G------------------|----6------------|
D----4-------------|--4---7-6-7-6-4--|
A--2---5-4-5-4-2-4-|-----------------|
E------------------|-----------------|

Rhy.Fig.1:
E------|------|------|-------------|------|------|------|------------|
H------|------|------|-------------|------|------|------|------------|
G--4---|------|--4---|--7-7---4-4--|--4---|------|--4---|------------|
D--4---|--4---|--4---|--7-7---4-4--|--4---|--4---|--4---|--7-7--4-4--|
A--2---|--4---|--2---|--5-5---2-2--|--2---|--4---|--2---|--7-7--4-4--|
E------|--2---|------|-------------|------|--2---|------|--5-5--2-2--|

Riff B
E--------------------|----------------|
H--------------------|----------------|
G--------------------|--8--8-6--------|
D-6-8-9-8-------6-6--|---------8--6-6-|
A----------9--9------|----------------|
E--------------------|----------------|

Rhy.Fig.2:
E---------|--------------|
H---------|--------------|
G---------|------6--9-9--|
D--7---4--|--2---6--9-9--|
A--7---4--|--2---4--7-7--|
E--4---2--|--0------0-0--|

Riff C
E---------------------|-----------------------|
H---------------------|-----------------------|
G---------------------|-----------------------|
D-------------P.M-----|-----------------------|
A--12--11--9---7---9--|--14--12--11---PM--9---|
E---------------------|---------------12------|

Rhy.Fig.3:
E-----------------|-----------------|-----------------|-------------------|
H-----------------|-----------------|-----------------|-------------------|
G-----------------|-----------------|-6-6-6-6-6-6-6-6-|-4-4-4-4-4-4-4-4---|
D-4-4-4-4-4-4-4-4-|-4-4-4-4-4-4-4-4-|-6-6-6-6-6-6-6-6-|-4-4-4-4-4-4-4-4---|
A-4-4-4-4-4-4-4-4-|-4-4-4-4-4-4-4-4-|-4-4-4-4-4-4-4-4-|-2-2-2-2-2-2-2-2---|
E-2-2-2-2-2-2-2-2-|-2-2-2-2-2-2-2-2-|-----------------|-------------------|
							 End Rhy.Fig.3
E-----------------|-----------------|-----------------|------------------|
H-----------------|-----------------|-----------------|------------------|
G-----------------|-----------------|-----------------|-4-4-4-4-4-4-4-4--|
D-2-2-2-2-2-2-2-2-|-2-2-2-2-2-2-2-2-|-7-7-7-7-7-7-7-7-|-4-4-4-4-4-4-4-4--|
A-2-2-2-2-2-2-2-2-|-2-2-2-2-2-2-2-2-|-7-7-7-7-7-7-7-7-|-2-2-2-2-2-2-2-2--|
E-0-0-0-0-0-0-0-0-|-0-0-0-0-0-0-0-0-|-5-5-5-5-5-5-5-5-|------------------|

Riff D
E------------------|------------------|---------------|------------|
H------------------|------------------|---------------|------------|
G-6---pm-8--8-pm-8-|-6---pm-8--8-pm-8-|---------------|------------|
D-----9-------9----|-----9-------9----|-7-------6--4--|-2----4-----|
A------------------|------------------|---------------|------------|
E------------------|------------------|---------------|------------|
[ Tab from: http://www.guitartabs.cc/tabs/s/shadowkings/paradise_lost_tab_ver_2.html ]
Rhy.Fig.4
E------------------|------------------|---------------|------------|
H------------------|------------------|---------------|------------|
G-6----------------|-6----------------|---------------|------------|
D-6----------------|-6----------------|-2-------------|-4----9-----|
A-4----------------|-4----------------|-2-------------|-4----9-----|
E------------------|-4----------------|-0-------------|-2----7-----|

Riff E
| E--------------|
| H--------------|
| G--------------|
| D---4--6-------|
| A---------4----|
| E--------------|
|
| E--------------|
| H--------------|
| G--6--6--------|
| D--6--6--------|
| A--4--4--------|
| E--------------|

Solo
E------------------------------------------------------------------------|
H--------------------------10-10-10-9--10-9------------------------------|
G--11-11--9-11-9-11--9-11--------------------11-9-11---------------------|
D----------------------------------------------------11-9-11---9-11-9-11-|
A------------------------------------------------------------------------|
E------------------------------------------------------------------------|


E--------------------------------|
H--------------------------------|  End of Solo
G--------------------------------|
D-9-11-9-11---10-9-7-------------|
A--------------------10-9-7------|
E--------------------------------|

Riff Solo
E-------------------------------------------------------------------------|
H-------------------------------------------------------------------------|
G-11-11-11-11-11-11-11-11-9-9-9-9-9-9-9-9-6-6-6-6-6-6-6-6-4-4-4-4-4-4-4-4-|
D-11-11-11-11-11-11-11-11-9-9-9-9-9-9-9-9-6-6-6-6-6-6-6-6-4-4-4-4-4-4-4-4-|
A-9--9--9--9--9--9--9--9--7-7-7-7-7-7-7-7-4-4-4-4-4-4-4-4-2-2-2-2-2-2-2-2-|
E-------------------------------------------------------------------------|
						end Riff Solo
E-----------------------------------------------------------------|
H-----------------------------------------------------------------|
G-9-9-9-9-9-9-9-9-6-6-6-6-6-6-6-6-2-2-2-2-2-2-2-2-4-4-4-4-4-4-4-4-|
D-9-9-9-9-9-9-9-9-6-6-6-6-6-6-6-6-2-2-2-2-2-2-2-2-4-4-4-4-4-4-4-4-|
A-7-7-7-7-7-7-7-7-4-4-4-4-4-4-4-4-0-0-0-0-0-0-0-0-2-2-2-2-2-2-2-2-|
E-----------------------------------------------------------------|


intro:
   4x Riff A + 2x Rhy.Fig.1

Band In:
   2x Riff B + 2x Rhy.Fig.2

Verse1:

  2x Rhy.Fig.3

  A spiral movement, the ultimate mystery
  Will you show...will you show who you are?

  It's the truth that untruth suspicion is
  spreading like a disease
  Do you know if it is real?

Chorus1:
   2x Rhy.fig.2

  Voices appear inside my brain
  Their need, to set me free
  Onward they lead before the dawn
  Teach me what's right and wrong

Verse2:
  2x Rhy.fig.3

  Encourage the madness they welcome impurity
  I don't know...I don't know...who I am?
  Fallen blind to the cruel hysteria that's
  constantly challenging
  Me, all alone ...all alone...can't be real

Chorus2:
   2x Rhy.fig.2

   Voices approve I can't relate
   Their need to celebrate
   Onward they lead before the dawn
   Teach me what's right and wrong

   2x Rhy.fig.2 + 2x Riff B

Interlude:
    2x Rhy.fig.4 + 2x Riff D
    1x Riff E

    4x Riff A + 2x Rhy.Fig.1

Chorus3:
    2x Rhy.fig.2

    Voices approve, the quest begins
    Fuel for the shadowkings
    Onward they lead before the dawn
    Teach me what's right from wrong

Solo:

   4x (Solo + Riff Solo)
   fade out

End.
Comments