Shadowcast - With All Due Respect Chords & Tabs

 

With All Due Respect Chords & Tabs

Shadowcast Chords & Tabs

Version: 1 Type: Tab 1 rating
1 star 2 stars 3 stars 4 stars 5 stars
comments

With All Due Respect Tab

 With All Due Respect/Shadowcast


 e-------------------------------------------------------
 B-------------------------------------------------------
 G---------------------11--11--11------------------------   Play this part 4x
 D------------9--9--9--11--11--11--7--7--9--9------------
 A--12-12-12--9--9--9--9---9---9---7--7--9--9------------
 E---0--0--0--7--7--7--------------5--5--7--7------------


 e-------------------------------------------------------
 B-------------------------------------------------------
 G-----------9---9---9---9-------------------------------  Play this part 4x
 D---9---9---9---9---9---9---7---7---9---9---------------
 A---9---9---7---7---7---7---7---7---9---9---------------
 E---7---7-------------------5---5---7---7---------------


 e-------------------------------------------------------
 B-------------------------------------------------------
 G---------------------11--11--11------------------------   Play this part 4x
 D------------9--9--9--11--11--11--7--7--9--9------------
 A--12-12-12--9--9--9--9---9---9---7--7--9--9------------
 E---0--0--0--7--7--7--------------5--5--7--7------------

[ Tab from: http://www.guitartabs.cc/tabs/s/shadowcast/with_all_due_respect_tab.html ]
 e-------------------------------------------------------
 B-------------------------------------------------------
 G-----------9---9---9---9-------------------------------  Play this part 4x
 D---9---9---9---9---9---9---7---7---9---9---------------
 A---9---9---7---7---7---7---7---7---9---9---------------
 E---7---7-------------------5---5---7---7---------------


 e-------------------------------------------------------
 B-------------------------------------------------------
 G---------------------11--11--11------------------------   Play this part 4x
 D------------9--9--9--11--11--11--7--7--9--9------------
 A--12-12-12--9--9--9--9---9---9---7--7--9--9------------
 E---0--0--0--7--7--7--------------5--5--7--7------------


 e--------------7--7--7--7--9--9--9--9-------------------
 B--9--9--9--9--------------------------9--9--9--7--7--7-
 G-------------------------------------------------------   Play this part 4x
 D-------------------------------------------------------
 A-------------------------------------------------------
 E-------------------------------------------------------


 e-------------------------------------------------------
 B-------------------------------------------------------
 G---------------------11--11--11------------------------   Play this part 4x
 D------------9--9--9--11--11--11--7--7--9--9------------
 A--12-12-12--9--9--9--9---9---9---7--7--9--9------------
 E---0--0--0--7--7--7--------------5--5--7--7------------

                           END


 

Comments