Shades Of Black - Insignificant Someone Chords & Tabs

 

Insignificant Someone Chords & Tabs

Shades Of Black Chords & Tabs

Version: 1 Type: Tab 0 ratings
1 star 2 stars 3 stars 4 stars 5 stars
comments

Insignificant Someone Tab

E----------------------------------------------------------------|x4
B----------------------------------------------------------------|
G--5-5-------5-5-3-3---------------------------------------------|
D--5-5-5-5-5-5-5-3-3---------------------------------------------|
A--3-3-5-5-5-3-3-1-1---------------------------------------------|
E------3-3-3-----------------------------------------------------|
          Each one gets Progressively Faster
E----------------------------------------------------------------|x2
B----------------------------------------------------------------|
G--7-7-------7-7--------5-5-------5-5--------10~-----------------|
D--7-7-7-7-7-7-7-7-7-7--5-5-5-5-5-5-5-5-5-5--10~-----------------|
A--5-5-7-7-7-5-5-7-7-7--3-3-5-5-5-3-3-5-5-5---8~-----------------|
E------5-5-5-----5-5-5------3-3-3-----3-3-3----------------------|

E----------------------------------------------------------------|
B----------------------------------------------------------------|
G--7-7-7-7-7-7-7--5-5-5-5-5-5-5--7-7-7-7-7-7-7--5-5-5-5-5-5-5----|
D--7-7-7-7-7-7-7--5-5-5-5-5-5-5--7-7-7-7-7-7-7--5-5-5-5-5-5-5----|
A--5-5-5-5-5-5-5--3-3-3-3-3-3-3--5-5-5-5-5-5-5--3-3-3-3-3-3-3----|
E----------------------------------------------------------------|
                      Palm Mute All on This
[ Tab from: http://www.guitartabs.cc/tabs/s/shades_of_black/insignificant_someone_tab.html ]
E----------------------------------------------------------------|
B----------------------------------------------------------------|
G----------------------------------------------------------------|
D--10-10-10-10-10-10-10--7-7-7-7-7-7-7--10-10-10-10-10-10-10-----|
A--10-10-10-10-10-10-10--7-7-7-7-7-7-7--10-10-10-10-10-10-10-----|
E---8--8--8--8--8--8--8--5-5-5-5-5-5-5---8--8--8--8--8--8--8-----|
                      Palm Mute all on This 
 
E----------------------------------------------------------------|
B----------------------------------------------------------------|
G----------------------------------------------------------------|
D--7-7-7-7-7-7-7~------------------------------------------------|
A--7-7-7-7-7-7-7~------------------------------------------------|
E--5-5-5-5-5-5-5~------------------------------------------------|
                    Palm mute except for last.

E----------------------------------------------------------------|x2
B----------------------------------------------------------------|
G-----------------------------7-7----------------------------5-5-|
D--7-7-7-7--5-5-5-5--7-7-7-7--7-7--7-7-7-7--5-5-5-5--7-7-7-7-5-5-|
A--7-7-7-7--5-5-5-5--7-7-7-7--5-5--7-7-7-7--5-5-5-5--7-7-7-7-3-3-|
E--5-5-5-5--3-3-3-3--5-5-5-5-------5-5-5-5--3-3-3-3--5-5-5-5-----|
                  Palm mute except for last.

Comments