Shades Apart - Stranger By The Day Chords & Tabs

 

Stranger By The Day Chords & Tabs

Shades Apart Chords & Tabs

Version: 2 Type: Bass Tab 0 ratings
1 star 2 stars 3 stars 4 stars 5 stars
comments

Stranger By The Day Bass Tab

From            : Paul Racz (correcting ThaMig) 
Artist          : Shades Apart 
E-mail address  : capn89@earthlink.net 
Bass Performance: Stranger By The Day 

Part 1 
  (1234 1234 1234 1234) 
G)---------------------| 
D)---------------------| 
A)-2222---1---------1--|  correction 
E)------22-2-0000-22-2-| 

Part 2 
  (1234 1-2-3) 
G)------------| 
D)------------| 
A)--------2---|  credit to original author ThaMig 
E)-4444-2---4-| 

Part 3 
  (12 12 12 12 12 12 12 1-2-3 12 12 12 12) 
G)----------------------------------------| 
D)----------------------6-----------------| 
A)-44-44-------22-11------6---44-44-66-66-|  correction 
E)-------22-22-------44-----4-------------| 

Part 4 
  (12 12 12 12 12 1234 12 1-2-3 12 12 12 12) 
G)------------------------------------------| 
D)------------------------6-----------------| 
A)-44-44-------22-1122------6---44-44-66-66-|  new 
E)-------22-22---------44-----4-------------| 
[ Tab from: http://www.guitartabs.cc/tabs/s/shades_apart/stranger_by_the_day_btab_ver_2.html ]
Part 5 
  (12 12 12 12 1234 1234 12 1-2-3 12 12 1234 1234 12345678 12345~ 
G)---------------------------------------------------------------| 
D)--------------------------6------------------------------------| 
A)-44-44-------2222-1111------6---44-44-6666---4--22222222-44444~|  new 
E)-------22-22-----------44-----4------------22-2----------------| 

Part 6 
  (1234 1234   1-2  1-2  1-2   /------1234567-----\ 
G)-----------|----|----|-----|---------------------| 
D)-----------|----|----|-----|---------------------| 
A)-2222---1--|----|----|-----|---------------------|  new 
E)------22-2-|12-0|12-0|12-14|14-14-14-14-14-14-14-| 

Part 6 may be a bit confusing, it is 12(twelve) 0(open), and 12(twelve) 
14(fourteen), and then seven more 14s.  Listen the song you’ll hear it 
near the end of the song. 

Order: 
Part 1 x 2 
Part 2 x 1 
Part 3 x 1 
Part 2 x 1 

Part 4 x 1 
Part 1 x 3 
Part 2 x 1 
Part 3 x 1 

Part 2 x 1 
Part 4 x 1 
Part 1 x 3 
Part 2 x 1 

Part 4 x 1 
Part 2 x 1 
Part 3 x 1 
Part 1 x 1 

Part 5 x 1 
Part 1 x 3 
Part 6 x 1 
Part 1 x 4 


Comments