Shack - Natalies Party Chords & Tabs

 

Natalies Party Chords & Tabs

Shack Chords & Tabs

Version: 1 Type: Tab 0 ratings
1 star 2 stars 3 stars 4 stars 5 stars
comments

Natalies Party Tab

   
Natalies Party from the album 'HMS Fable' by Shack

I know this aint 100% right but it sounds pretty much complete,
there are just a few bits im unsure of, so listen yourself and see
if you can do better.

Far as i know all the chords are first position

D               G            Em 
Look at all the villages in town

lead fill (based on Em chord)

D----------0h2------
A---0--0h2-----2p0--
E-------------------
D            G              E
And all the farmers hangin' round

e--2--3--2--0--2--0--
B--3--3--3--3--3--3--
G--2--2--2--2--2--2--
D--0--0--0--0--0--0--

its just that kind of pattern repeated on every verse, except the chorus and bridge which i aint
sure about

Solo

e----------5-----------------5------------------5---------------5--5h7p5-----|
B--5--5h7-----7--5----5--5h7----7--5-----5--5h7----7--5-----5h7--------------|
G------------------7------------------7------------------7-------------------|
D----------------------------------------------------------------------------|
A----------------------------------------------------------------------------|
E----------------------------------------------------------------------------|

[ Tab from: http://www.guitartabs.cc/tabs/s/shack/natalies_party_tab.html ]
             *not sure of this part*
e-----5--5h7--9---10(bu1/2)--7--10/17-----------17---------------------17----|
B--7----------------------------------17--17h19----19-17------17-17h19----19-|
G---------------------------------------------------------19-----------------|
D----------------------------------------------------------------------------|
A----------------------------------------------------------------------------|
E----------------------------------------------------------------------------|



e------------------17-------17-------17-------17----17-17----17-17-----------|
B--17----17--17h19----17h19----17h19----17h19----17-------17-------19--17----|
G-----19---------------------------------------------------------------------|
D----------------------------------------------------------------------------|
A----------------------------------------------------------------------------|
E----------------------------------------------------------------------------|

Thats about as close as i get, sounds good with about 4/5 on yer gain setting (also hides
the bits i cant do).

The album is a classic in its own right, everyone should own it! and Waterpistol by Shack!
go on, educate yourselves!

Any corrections, comments, gifts... inspiralrug@hotmail.com

Enjoy

Ross

SFAOK!!!
Comments