Sex Pistols - Submission Chords & Tabs

 

Submission Chords & Tabs

Sex Pistols Chords & Tabs

Version: 2 Type: Tab 0 ratings
1 star 2 stars 3 stars 4 stars 5 stars
comments

Submission Tab

   
-----------------------------------------------------------------------------
			     SUBMISSION - sex pistols
-----------------------------------------------------------------------------
Tabbed by:james torevell
Email:Toz_2_0_0_4@hotmail.com
                                 \\-slide down
Tuning:EADGBE                    ))- let ring   x-x-mute string  
                                 *-start on the fret before the* but pulled 
                                 up so it sounds like the fret after the *   
                                 >>-pull string p-pull off Rt-release tension
intro:
e|-------------------------------------------------------|
B|-------------------------------------------------------|
G|--10-))-------8-))-------------------------------------|
D|--10-))-------8-))-------------------------------------|  x1
A|--8--))-------6-))-------------------------------------|
E|-------------------------------------------------------|

mian riff:
e|-------------------------------------------------------|
B|-------------------------------------------------------|
G|--x-x-5-5-x-x-3-3-x-x-8-8-x-x-5-5----------------------|
D|--x-x-5-5-x-x-3-3-x-x-8-8-x-x-5-5----------------------|  x8
A|--x-x-3-3-x-x-1-1-x-x-6-6-x-x-3-3----------------------|
E|-------------------------------------------------------|

chorus:
e|-------------------------------------------------------|
B|-------------------------------------------------------|
G|--8-8-8-8-8-8-8-8/-10-10-10-10-10-10-10-10-------------|
D|--8-8-8-8-8-8-8-8/-10-10-10-10-10-10-10-10-------------|
A|--6-6-6-6-6-6-6-6/-8--8--8--8--8--8--8--8--------------|
E|-------------------------------------------------------|


e|--------8p6--------------------------------------------|
B|-------------------------------------------------------|
G|--9>>10-----8*10Rt\\-~5~-------------------------------|
D|-------------------------------------------------------|
A|-------------------------------------------------------|
E|-------------------------------------------------------|

e|-------------------------------------------------------|
B|-------------------------------------------------------|
G|--8-8-8-8-8-8-8-8/-10-10-10-10-10-10-10-10-------------|
D|--8-8-8-8-8-8-8-8/-10-10-10-10-10-10-10-10-------------|
A|--6-6-6-6-6-6-6-6/-8--8--8--8--8--8--8--8--------------|
E|-------------------------------------------------------|

mian riff:
e|-------------------------------------------------------|
B|-------------------------------------------------------|
G|--x-x-5-5-x-x-3-3-x-x-8-8-x-x-5-5----------------------|
D|--x-x-5-5-x-x-3-3-x-x-8-8-x-x-5-5----------------------|  x6
A|--x-x-3-3-x-x-1-1-x-x-6-6-x-x-3-3----------------------|
E|-------------------------------------------------------|

chorus:
e|-------------------------------------------------------|
B|-------------------------------------------------------|
G|--8-8-8-8-8-8-8-8/-10-10-10-10-10-10-10-10-------------|
D|--8-8-8-8-8-8-8-8/-10-10-10-10-10-10-10-10-------------|
A|--6-6-6-6-6-6-6-6/-8--8--8--8--8--8--8--8--------------|
E|-------------------------------------------------------|


e|--------8p6--------------------------------------------|
B|-------------------------------------------------------|
G|--9>>10-----8*10Rt\\-~5~-------------------------------|
D|-------------------------------------------------------|
A|-------------------------------------------------------|
E|-------------------------------------------------------|

e|-------------------------------------------------------|
B|-------------------------------------------------------|
G|--8-8-8-8-8-8-8-8/-10-10-10-10-10-10-10-10-------------|
D|--8-8-8-8-8-8-8-8/-10-10-10-10-10-10-10-10-------------|
A|--6-6-6-6-6-6-6-6/-8--8--8--8--8--8--8--8--------------|
E|-------------------------------------------------------|

bridge:
e|-------------------------------------------------------|
B|-------------------------------------------------------|
G|--x-x-5-5-x-x-3-3-x-x-8-8-x-x-5-5----------------------|
D|--x-x-5-5-x-x-3-3-x-x-8-8-x-x-5-5----------------------|  x2
A|--x-x-3-3-x-x-1-1-x-x-6-6-x-x-3-3----------------------|
E|-------------------------------------------------------|

riff A:
e|-------------------------------------------------------|
B|-------------------------------------------------------|
G|--10-))--------5-))--------10-))----8-))---------------|
D|--10-))--------5-))--------10-))----8-))---------------|
A|---8-))--------3-))---------8-))----6-))---------------|
E|-------------------------------------------------------|

bridge:
e|-------------------------------------------------------|
B|-------------------------------------------------------|
G|--x-x-5-5-x-x-3-3-x-x-8-8-x-x-5-5----------------------|
D|--x-x-5-5-x-x-3-3-x-x-8-8-x-x-5-5----------------------|  x2
A|--x-x-3-3-x-x-1-1-x-x-6-6-x-x-3-3----------------------|
E|-------------------------------------------------------|
[ Tab from: http://www.guitartabs.cc/tabs/s/sex_pistols/submission_tab_ver_2.html ]
riff B:
e|-------------------------------------------------------|
B|-------------------------------------------------------|
G|--5-5-5-5//-3-3-3-3//-8-8-8-8//-5-5-5-5----------------|
D|--5-5-5-5//-3-3-3-3//-8-8-8-8//-5-5-5-5----------------|  x4
A|--3-3-3-3//-1-1-1-1//-6-6-6-6//-3-3-3-3----------------|
E|-------------------------------------------------------|

chorus:
e|-------------------------------------------------------|
B|-------------------------------------------------------|
G|--8-8-8-8-8-8-8-8/-10-10-10-10-10-10-10-10-------------|
D|--8-8-8-8-8-8-8-8/-10-10-10-10-10-10-10-10-------------|
A|--6-6-6-6-6-6-6-6/-8--8--8--8--8--8--8--8--------------|
E|-------------------------------------------------------|


e|-------------------------------------------------------|
B|-------------------------------------------------------|
G|--9>>10----9>>10--9>>10--9>>~10~-----------------------|
D|-------------------------------------------------------|
A|-------------------------------------------------------|
E|-------------------------------------------------------|

e|-------------------------------------------------------|
B|-------------------------------------------------------|
G|--8-8-8-8-8-8-8-8/-10-10-10-10-10-10-10-10-------------|
D|--8-8-8-8-8-8-8-8/-10-10-10-10-10-10-10-10-------------|
A|--6-6-6-6-6-6-6-6/-8--8--8--8--8--8--8--8--------------|
E|-------------------------------------------------------|

bridge:
e|-------------------------------------------------------|
B|-------------------------------------------------------|
G|--x-x-5-5-x-x-3-3-x-x-8-8-x-x-5-5----------------------|
D|--x-x-5-5-x-x-3-3-x-x-8-8-x-x-5-5----------------------|  x2
A|--x-x-3-3-x-x-1-1-x-x-6-6-x-x-3-3----------------------|
E|-------------------------------------------------------|

riff c:
e|-------------------------------------------------------|
B|-------------------------------------------------------|
G|--10---10--10-10-10------------------------------------|
D|--10---10--10-10-10------------------------------------|
A|---8----8---8--8--8------------------------------------|
E|-------------------------------------------------------|

e|--------8p6-6>>7-8-------------------------------------|
B|-------------------------------------------------------|
G|--9>>10------------8*10Rt\\-~5~------------------------|
D|-------------------------------------------------------|
A|-------------------------------------------------------|
E|-------------------------------------------------------|


e|-------------------------------------------------------|
B|-------------------------------------------------------|
G|--10-))----8-))----------------------------------------|
D|--10-))----8-))----------------------------------------|
A|---8-))----6-))----------------------------------------|
E|-------------------------------------------------------|

mian riff:
e|-------------------------------------------------------|
B|-------------------------------------------------------|
G|--x-x-5-5-x-x-3-3-x-x-8-8-x-x-5-5----------------------|
D|--x-x-5-5-x-x-3-3-x-x-8-8-x-x-5-5----------------------|  x6
A|--x-x-3-3-x-x-1-1-x-x-6-6-x-x-3-3----------------------|
E|-------------------------------------------------------|

chorus:
e|-------------------------------------------------------|
B|-------------------------------------------------------|
G|--8-8-8-8-8-8-8-8/-10-10-10-10-10-10-10-10-------------|
D|--8-8-8-8-8-8-8-8/-10-10-10-10-10-10-10-10-------------|
A|--6-6-6-6-6-6-6-6/-8--8--8--8--8--8--8--8--------------|
E|-------------------------------------------------------|


e|-------------------------------------------------------|
B|-------------------------------------------------------|
G|--9>>10--9>>10--9>>~10~--------------------------------|
D|-------------------------------------------------------|
A|-------------------------------------------------------|
E|-------------------------------------------------------|

e|-------------------------------------------------------|
B|-------------------------------------------------------|
G|--8-8-8-8-8-8-8-8/-10-10-10-10-10-10-10-10-------------|
D|--8-8-8-8-8-8-8-8/-10-10-10-10-10-10-10-10-------------|
A|--6-6-6-6-6-6-6-6/-8--8--8--8--8--8--8--8--------------|
E|-------------------------------------------------------|

outro:
e|-------------------------------------------------------|
B|-------------------------------------------------------|
G|--x-x-5-5-x-x-3-3--------------------------------------|
D|--x-x-5-5-x-x-3-3--------------------------------------|  x24
A|--x-x-3-3-x-x-1-1--------------------------------------|
E|-------------------------------------------------------|


e|-------------------------------------------------------|
B|-------------------------------------------------------|
G|--5--3--5-x-x-5-))-------------------------------------|
D|--5--3--5-x-x-5-))-------------------------------------|  x1
A|--3--1--3-x-x-3-))-------------------------------------|
E|-------------------------------------------------------|
Comments