Sex Pistols - Something Else Chords & Tabs

 

Something Else Chords & Tabs

Sex Pistols Chords & Tabs

Version: 1 Type: Tab 0 ratings
1 star 2 stars 3 stars 4 stars 5 stars
comments

Something Else Tab

 Most people would say the artist is the Sex Pistols. But this song is
 a part of Sid's solo career. You could find this song of the "Great
 Rock 'n' Roll Swindle" soundtrack. But I found this off the Record
 "Vicious:too fast to live". You could also find the live version off
 sids solo album "Sid Sings". Well here are the tabs.
 Intro/End
E|-------------------------------------|
B|-------------------------------------|
G|-------------------------------------|
D|-6-7-7-7-7--6-7-7-7-7--6-7-7-7-7--7--|
A|-6-7-7-7-7--6-7-7-7-7--4-7-7-7-7--7--|
E|-4-5-5-5-5--4-5-5-5-5--4-5-5-5-5--5--|  (x2)
[ Tab from: http://www.guitartabs.cc/tabs/s/sex_pistols/something_else_tab.html ]
 Verse
  Look at that,   here she comes.
e|----------------------------------------------|
B|----------------------------------------------|
G|----------------------------------------------|
D|-------------6--7---------------6--7--8-8-8-8-|
A|-------------6--7---------------4--7--8-8-8-8-|
E|-------------4--5---------------4--5--6-6-6-6-|
    Here comes that girl again......
E|------------------------------------------|
B|------------------------------------------|
G|------------------------------------------|
D|-6--6--6--6--6--6--6--6--6--6--6--8-8-8-7-|
A|-6--6--6--6--6--6--6--6--6--6--6--8-8-8-7-|
E|-4--4--4--4--4--4--4--4--4--4--4--6-6-6-5-|

Repeat and then Fade
Comments