Sex Pistols - Schools Are Prisons Chords & Tabs

 

Schools Are Prisons Chords & Tabs

Sex Pistols Chords & Tabs

Version: 1 Type: Tab 1 rating
1 star 2 stars 3 stars 4 stars 5 stars
comments

Schools Are Prisons Tab

Schools Are Prisons
Sex Pistols
La Parka
This song is a kinda weird tune, any way you must play it like this

INTRO
E|------0--------------------------------------------------------------|
B|-----0---------------------------------------------------------------|
G|----1----------------------------------------------------------------|
D|---2-----------------------------------------------------------------|
A|--2------------------------------------------------------------------|
E|-0-------------------------------------------------------------------|

[ Tab from: http://www.guitartabs.cc/tabs/s/sex_pistols/schools_are_prisons_tab.html ]
E|--------------------------------------------------------------------|
B|--------------------------------------------------------------------|
G|-7--6--4-----------------------7--6--4------------------------------|
D|-7--6--4--5--5--4--4--7--7-----7--6--4--5--5--4--4--2--2------------|
A|-5--4--2--5--5--4--4--7--7-----5--4--2--5--5--4--4--2--2------------|
E|----------3--3--2--2--5--5--------------3--3--2--2--0--0------------|

VERSE-CHORUS
E|--------------------------------------------------------------------|
B|--------------------------------------------------------------------|
G|-------------6--6--6--6---------------------------------------------|
D|-7--7--7--7--6--6--6--6---------------------------------------------|
A|-7--7--7--7--4--4--4--4---------------------------------------------|
E|-5--5--5--5---------------------------------------------------------|

BRIDGE
E|--------------------------------------------------------------------|
B|--------------------------------------------------------------------|
G|-7--7--7--7---------------------------------------------------------|
D|-7--7--7--7--4--4--4--4---------------------------------------------|
A|-5--5--5--5--4--4--4--4---------------------------------------------|
E|-------------2--2--2--2---------------------------------------------|


Comments