Sex Pistols - Problems Chords & Tabs

 

Problems Chords & Tabs

Sex Pistols Chords & Tabs

Version: 2 Type: Bass Tab 0 ratings
1 star 2 stars 3 stars 4 stars 5 stars
comments

Problems Bass Tab

   
Song Title: Problems
Artist: Sex Pistols
----------------------------------------------

"Problems", from Never Mind the Bollocks Here's the Sex Pistols

My first bass transcription.  Be merciful. :)

Mordrid (bennyh@acs.bu.edu)

A. Intro
                                  (3x)
G:--------------|----------------- ||-------------|-----------||
D:--------------|-----------------*||----------/7-|-7-7-5-4---||
A:--5-5-3-3-3---|---------------5-*||-5-5-3-3-3---|---------7-||
E:------------5-|-5-5-5-5-3/5-5--- ||-------------|-----------||


B. 1st Verse
                                     (4x)
G:|| --------------|----------------- || -------------|-----------------|
D:||*--------------|-----------------*||*----------/7-|-7-7-7-7-5/7-7---|
A:||*--5-5-3-3-3---|---------------5-*||*-5-5-3-3-3---|---------------5-|
E:|| ------------5-|-5-5-5-5-3/5-5--- || -------------|-----------------|

G:--------------|----------------- ||
D:--------------|-----------------*||
A:--5-5-3-3-3---|-----------------*||
E:------------5-|-5-5-5-5-3/5-5-5- ||


C: 1st and 2nd Choruses

G:------------------|-----------------|-----------------|-----------------|
D:------------------|-----------------|-----------------|-----------------|
A:------------------|-----------------|-----------------|-----------------|
E:--5-5-5-5-3/5-5-5-|-3/5-5-5-5-5-5-5-|-7-7-7-7-5/7-7-7-|-5/7-7-7-7-7-7-7-|

G:------------------|-----------------|| -------------|-------------------|
D:------------------|-----------------||*----------/7-|-7-7-7-7-5/7-7-7---|
A:------------------|---------------5-||*-5-5-3-3-3---|-----------------5-|
E:--8-8-8-8-7/8-8-8-|-8-8-8-8-8-8-8---|| -------------|-------------------|

G:--------------|----------------- ||
D:--------------|-----------------*||
A:--5-5-3-3-3---|---------------5-*||
E:------------5-|-5-5-5-5-3/5-5--- ||


D. 2nd Verse
                                                                    (3x)
G:|| --------------|-----------------|------------|----------------- ||
D:||*-----------/7-|-7-7-7-7-5/7-7---|------------|-----------------*||
A:||*--5-5-3-3-3---|---------------5-|5-5-3-3-3---|---------------5-*||
E:|| --------------|-----------------|----------5-|-5-5-5-5-3/5-5--- ||

G:--------------|---------|-------------|-----------------||
D:-----------/7-|-7-5-4---|-------------|-----------------||
A:--5-5-3-3-3---|-------7-|-5-5-3-3-3---|-----------------||
E:--------------|---------|-----------5-|-5-5-5-5-3/5-5-5-||


E. Guitar Solo
                                     (6x)
G:|| --------------|----------------- ||----------------|-----------------|
D:||*--------------|-----------------*||----------------|-----------------|
A:||*--5-5-5-3-3-0-|-0-0-0-0-0-0-0-5-*||--5-5-5-3-3-3-0-|-0-0-3-3-0-0-3-5-|
E:|| --------------|----------------- ||----------------|-----------------|

G:----------------|-----------------||
D:----------------|-----------------||
A:--5-5-5-3-3-3-0-|-0-0-0-0-0-0-0-0-||
E:----------------|-----------------||

F. 3rd Chorus

G:------------------|-----------------|-----------------|-----------------|
D:------------------|-----------------|-----------------|-----------------|
A:------------------|-----------------|-----------------|-----------------|
E:--5-5-5-5-3/5-5-5-|-3/5-5-5-5-5-5-5-|-7-7-7-7-5/7-7-7-|-5/7-7-7-7-7-7-7-|

G:------------------|-----------------|-------------|---------|
D:------------------|-----------------|----------/7-|-7-5-4---|
A:------------------|---------------5-|-5-5-3-3-3---|-------7-|
E:--8-8-8-8-7/8-8-8-|-7/8-8-8-8-8-8---|-------------|---------|
[ Tab from: http://www.guitartabs.cc/tabs/s/sex_pistols/problems_btab_ver_2.html ]
G:--------------|-----------------|-------------|-----------------|
D:--------------|-----------------|----------/7-|-7-7-7-7-5/7-7---|
A:--5-5-3-3-3---|---------------5-|-5-5-3-3-3---|---------------5-|
E:------------5-|-5-5-5-5-3/5-5---|-------------|-----------------|

G:--------------|-----------------|-------------|-----------------|
D:--------------|-----------------|----------/7-|-7-7-7-7-5/7-7---|
A:--5-5-3-3-3---|-----------------|-5-5-3-3-3---|---------------5-|
E:------------5-|-5-5-5-5-3/5-5-5-|-------------|-----------------|

G:--------------|-----------------||
D:--------------|-----------------||
A:--5-5-3-3-3---|---------------5-||
E:------------5-|-5-5-5-5-3/5-5---||


G. Bridge

G:|| --------------|-----------------|-------------|----------------- ||
D:||*-----------/7-|-7-7-7-7-5/7-7---|-------------|-----------------*||
A:||*--5-5-3-3-3---|---------------5-|-5-5-3-3-3---|---------------5-*||
E:|| --------------|-----------------|-----------5-|-5-5-5-5-3/5-5--- ||
                                    (3x)
G:|| -------------|----------------- ||-------------|-----------------||
D:||*-------------|-----------------*||----------/7-|-7-7-5-5-4-4-----||
A:||*-5-5-3-3-3---|---------------5-*||-5-5-3-3-3---|-------------7-7-||
E:|| -----------5-|-5-5-5-5-3/5-5--- ||-------------|-----------------||


H. Outro

G:------------------|-----------------|-----------------|-----------------|
D:------------------|-----------------|-----------------|-----------------|
A:------------------|-----------------|-----------------|-----------------|
E:--5-5-5-5-3/5-5-5-|-3/5-5-5-5-5-5-5-|-7-7-7-7-5/7-7-7-|-5/7-7-7-7-7-7-7-|

G:------------------|-----------------|-------------|-----------------|
D:------------------|-----------------|----------/7-|-7-7-7-7-5/7-7---|
A:------------------|---------------5-|-5-5-3-3-3---|---------------5-|
E:--8-8-8-8-7/8-8-8-|-7/8-8-8-8-8-8---|-------------|-----------------|

G:--------------|-----------------|-------------|-----------------|
D:--------------|-----------------|----------/7-|-7-7-5-5-4-4-----|
A:--5-5-3-3-3---|---------------5-|-5-5-3-3-3---|-------------7-7-|
E:------------5-|-5-5-5-5-3/5-5---|-------------|-----------------|

G:--------------|-----------------|-------------|-----------------|
D:--------------|-----------------|-------------|-----------------|
A:--5-5-3-3-3---|---------------5-|-5-5-3-3-3---|---------------5-|
E:------------5-|-5-5-5-5-3/5-5---|-----------5-|-5-5-5-5-3/5-5---|

G:|| --------------|----------------- ||-------------|-----------------|
D:||*--------------|-----------------*||----------/7-|-7-7-7-7-5/7-7---|
A:||*--5-5-3-3-3---|---------------5-*||-5-5-3-3-3---|---------------5-|
E:|| ------------5-|-5-5-5-5-3/5-5--- ||-------------|-----------------|

G:--------------|-----------------|| -------------|----------------- ||
D:--------------|-----------------||*----------/7-|-7-7-7-7-5/7-7---*||
A:--5-5-3-3-3---|---------------5-||*-5-5-3-3-3---|---------------5-*||
E:------------5-|-5-5-5-5-3/5-5---|| -------------|----------------- ||

G:--------------|-----------------|-------------|-----------------|
D:--------------|-----------------|----------/7-|-7-7-7-7-5/7-7-7-|
A:--5-5-3-3-3---|---------------5-|-5-5-3-3-3---|-----------------|
E:------------5-|-5-5-5-5-3/5-5---|-------------|-----------------|
                     (10x)
G:|| ----------------- ||-----|---------||
D:||*-----------------*||-7-5-|---------||
A:||*-----------------*||-----|-7-5-3---||
E:|| -5-5-5-5-5-5-5-5- ||-----|-------5-||


Submitted by:  Mordrid (bennyh@acs.bu.edu)
Comments