Sex Pistols - Pretty Vacant Chords & Tabs

 

Pretty Vacant Chords & Tabs

Sex Pistols Chords & Tabs

Version: 4 Type: Tab 0 ratings
1 star 2 stars 3 stars 4 stars 5 stars
comments

Pretty Vacant Tab

Title: Pretty Vacant
Band: Sex Pistols

Intro:

e--------------------------------
B--------------------------------
G--------2--2---------------(x16)
D--------------------2--2--------
A--0--0--------0--0--------------
E--------------------------------

Verse:
[ Tab from: http://www.guitartabs.cc/tabs/s/sex_pistols/pretty_vacant_tab_ver_4.html ]
e------------------------------------------
B------------------------------------------
G----------7-7------------9-9-9-9-9-9------
D--7--5-5--7-7--7-7--5-5--9-9-9-9-9-9------
A--7--5-5--5-5--7-7--5-5--7-7-7-7-7-7------
E--5--3-3-------5-5--3-3-------------------

Chorus:

e------------------------------------------------------------
B------------------------------------------------------------
G--7-7-7-7-7-7---5-5-5-5-5-5---------------------------------
D--7-7-7-7-7-7---5-5-5-5-5-5---7-7-7-7-7-7-7-7-7-7-7-7-------
A--5-5-5-5-5-5---3-3-3-3-3-3---7-7-7-7-7-7-7-7-7-7-7-7-------
E------------------------------5-5-5-5-5-5-5-5-5-5-5-5-------
Comments